Oops, an error
Loading. Please wait.

Ratas tab

version 2
version 2

Whole song

97 views 1 this week
no commentswrite comment
1 2 3 4 5
3 more votes to show rating
add to favorites
×
Save as Personal and add changes to this tab that will be seen only by you. Learn more ›
×
You can save this tab as Personal to edit and correct it or add notes. All changes will be seen only by you. Learn more »
launch autoscroll
font size
0
reset
how to read this tab
guitar tuner
edit
Autoscroll
slow
fast
+/-
esc
set tempo
stop
Esta es otra forma mucho mas fácil de 
tocar que la que mandé hace mucho.   

Guitarra 1 (intro)
|-----------------------------------------------------------------|
|-----------------------------------------------------------------|
|-----------------------------------------------------------------|
|-------------0-0-2-2-0-0---------------------0-0-2-2-0-0---------|
|-0-0-2-2-3-3-------------3-3-2-2-----2-2-3-3-------------3-3-2-2-|
|---------------------------------3-3-----------------------------|

|-----------------------------------------------------------------|
|-----------------------------------------------------------------|
|-----------------------------------------------------------------|
|-------------0-0-2-2-0-0---------------------0-0-2-2-3-3-2-2-0-0-|
|-----2-2-3-3-------------3-3-2-2-----2-2-3-3---------------------|
|-1-1-----------------------------3-3-----------------------------|
___________________________________________________________________

Guitarra 1
|-----------------------------------------------------------------|
|-----------------------------------------------------------------|
|-----------------------------------------------------------------|
|-------------0-0-2-2-3-3-2-2-0-0-------------0-0-2-2-3-3-2-2-0-0-|
|-0-0-2-2-3-3-------------------------2-2-3-3---------------------|
|---------------------------------3-3-----------------------------|

Guitarra 2(junto con la 1)
|-----------------------------------------------------------------|
|-----------------------------------------------------------------|
|-----------------------------------------------------------------|
|-7-7-----------------------------5-5-----------------------------|
|-7-7-----------------------------5-5-----------------------------|
|-5-5-----------------------------3-3-----------------------------|
 [pm]                            [pm]

Guitarra 1
|-----------------------------------------------------------------|
|-----------------------------------------------------------------|
|---------------------------------------------0-0-2-2-0-0---------|
|-------------0-0-2-2-3-3-2-2-0-0-----2-2-3-3-------------3-3-2-2-|
|-----2-2-3-3-----------------------------------------------------|
|-1-1-----------------------------3-3-----------------------------|

Guitarra 2(junto con la 1)
|-----------------------------------------------------------------|
|-----------------------------------------------------------------|
|-----------------------------------------------------------------|
|-3-3-----------------------------5-5-----------------------------|
|-3-3-----------------------------5-5-----------------------------|
|-1-1-----------------------------3-3-----------------------------|
 [pm]                            [pm]
_______________________________________________________________________________________
                                                                                      |
Guitarra 1                                                                            |
|-----------------------------------------------------------------|                   |
|-----------------------------------------------------------------|                   |
|-----------------------------------------------------------------|                   |
|-------------2-2-----------------------------2-2-----------------|                   |
|-0---2-2-3-3-----3-3-2-2-3-3-3-2-----2-2-3-3-----3-3-2-2-3-3-3-2-|                   |
|---------------------------------3-------------------------------|                   |
                                                                                      |
Guitarra 2(junto con la 1)                                                            |
|-----------------------------------------------------------------|                   |
|-----------------------------------------------------------------|                   |
|-----------------------------------------------------------------|                   |
|-7-------------------------------5-------------------------------|                   |
|-7-------------------------------5-------------------------------|                   |
|-5-------------------------------3-------------------------------|                   |
                                                                                      |
Guitarra 1                                                                            |
|-----------------------------------------------------------------|                   |
|-----------------------------------------------------------------|                   |
|-----------------------------------------------------------------|                   |
|-------------2-2-----------------------------2-2-3-3-2-2---------|                   |
|-----2-2-3-3-----3-3-2-2-3-3-3-2-----2-2-3-3-------------3-3-2-2-|                   |  
|-1-------------------------------3-------------------------------|                   |
                                                                                      |
Guitarra 2(junta con la 1)                                                            |
|-----------------------------------------------------------------|                   |
|-----------------------------------------------------------------|                   |
|-----------------------------------------------------------------|                   |
|-3-------------------------------5-------------------------------|                   |
|-3-------------------------------5-------------------------------|                   |
|-1-------------------------------3-------------------------------| X2 este cuadro    |
______________________________________________________________________________________|

Guitarra 1(un poco mas rápido)                                                        |
|-----------------------------------------------------------------|                   |
|-----------------------------------------------------------------|                   |    
|-----------------------------------------------------------------|                   |  
|-------------2----------------------------2----------------------|                   |
|-0---2-2-3-3---3--3-2-2-3--3-2----2-2-3-3---3--3-2-2-3--3-2------|                   |
|--------------------------------3--------------------------------|                   |
                                                                                      |
Guitarra 2 junto con la 1)                                                            |
|-----------------------------------------------------------------|                   |
|-----------------------------------------------------------------|                   |
|-----------------------------------------------------------------|                   |
|-7-7-7-7-7-7-7-7----------------5-5-5-5-5-5-5-5------------------|                   |
|-7-7-7-7-7-7-7-7----------------5-5-5-5-5-5-5-5------------------|                   |
|-5-5-5-5-5-5-5-5----------------3-3-3-3-3-3-3-3------------------|                   |
                                                                                      |
Guitarra 1                                                                            |     
|-----------------------------------------------------------------|                   |
|-----------------------------------------------------------------|                   |
|-----------------------------------------------------------------|                   |
|-------------2----------------------------2----------------------|                   | 
|-----2-2-3-3---3--3-2-2-3--3-2----2-2-3-3---3--3-2-2-3--3-2------|                   |
|-1------------------------------3--------------------------------|                   |
                                                                                      |
Guitarra 2(junto con la 2)                                                            |
|-----------------------------------------------------------------|                   | 
|-----------------------------------------------------------------|                   |
|-----------------------------------------------------------------|                   |  
|-3--3-3-3--3--3-3--3------------5-5-5-5-5-5-5-5------------------|                   |
|-3--3-3-3--3--3-3--3------------5-5-5-5-5-5-5-5------------------|                   |
|-1--1-1-1--1--1-1--1------------3-3-3-3-3-3-3-3------------------|                   |
      [pm]     [pm]                                                     X2 este cuadro|
______________________________________________________________________________________|

Somos hijos de la ira...

Guitarra 1 y 2.  intro 2
|------------------------------------------------------|
|------------------------------------------------------|
|---------------5--------------------------------------|
|-7-------------5-3--------------5--------------7------|
|-7-------------3-3--------------5--------------7------|
|-5---------------1--------------3--------------5------|

|-----------------------------------------------------------------|
|-----------------------------------------------------------------|
|---------------5-------------------------------------------------|
|-7-------------5-3--------------5--------------7-------7/5-5-5-5-|
|-7-------------3-3--------------5--------------7-------7/5-5-5-5-|
|-5---------------1--------------3--------------5-------5/3-3-3-3-|
_____________________________________________________________[pm]__
Ratas de ciudad...

Guitarra 1 y 2
|-----------------------------------------------------------------|
|-----------------------------------------------------------------|
|-------------------------5---------------5---------5-4-----------|
|-7-7-7-7-7-7-7-5-3-3-3-3-3-3-3-5-5-5-5-5-5-4-5-7-7-7-7-7/5-5-5-5-|
|-7-7-7-7-7-7-7-3-3-3-3-3-3-3-3-3-5-5-5-5-3-2-5-7-7-7-7-7/5-5-5-5-|
|-5-5-5-5-5-5-5---1-1-1-1-1-1-1---3-3-3-3-----3-5-5-5-5-5/3-3-3-3-|
                                                             [pm]X2
No entendemos los valores de estado....
|-----------------------------------------------------------------|
|-----------------------------------------------------------------|
|-------------------------5---------------5---------5-4-----------|
|-7-7-7-7-7-7-7-5-3-3-3-3-3-3-3-5-5-5-5-5-5-4-5-7-7-7-7-7-5-5-5-5-|
|-7-7-7-7-7-7-7-3-3-3-3-3-3-3-3-3-5-5-5-5-3-2-5-7-7-7-7-7-5-5-5-5-|
|-5-5-5-5-5-5-5---1-1-1-1-1-1-1---3-3-3-3-----3-5-5-5-5-5-3-3-3-3-|
                                                                 X2
Ratas de ciudad...
|-----------------------------------------------------------------|
|-----------------------------------------------------------------|
|-------------5-----------5---------------5---------5-4-----------|
|-7-7-7-7-7-7-7-5-3-3-3-3-3-3-3-5-5-5-5-5-5-4-5-7-7-7-7-7/5-5-5-5-|
|-7-7-7-7-7-7-7-3-3-3-3-3-3-3-3-3-5-5-5-5-3-2-5-7-7-7-7-7/5-5-5-5-|
|-5-5-5-5-5-5-5---1-1-1-1-1-1-1---3-3-3-3-----3-5-5-5-5-5/3-3-3-3-|
_____________________________________________________________[pm]X2
Deferndemos tu postura...

Guitarra 1 y 2
|-----------------------------------------------------------------|
|-----------------------------------------------------------------|
|-------------5-4-----------------5-5-5-5-4-4-5-4-----------------|
|-3-3-3-3-5-5-5-4-7-7-7-7-7-7-7-7-5-5-5-5-4-4-5-4-7-7-7-7-7-7-7-7-|
|-3-3-3-3-5-5-3-2-7-7-7-7-7-7-7-7-3-3-3-3-2-2-3-2-7-7-7-7-7-7-7-7-|
|-1-1-1-1-3-3-----5-5-5-5-5-5-5-5-----------------5-5-5-5-5-5-5-5-|

|--------------------------------------------------|
|--------------------------------------------------|
|-------------5-4-----------------5-5-5-5-4-4-5-4--|
|-3-3-3-3-5-5-5-4-7-7-7-7-7-7-7-7-5-5-5-5-4-4-5-4--|
|-3-3-3-3-5-5-3-2-7-7-7-7-7-7-7-7-3-3-3-3-2-2-3-2--|
|-1-1-1-1-3-3-----5-5-5-5-5-5-5-5------------------|

|-----------------------------------------------------------------------------------|
|-----------------------------------------------------------------------------------|
|-------------------------------------------------5-4-------------5-4---------5-4---|
|-77--7--77--7--77--7--77--7--77--7--77--7--77--7-5-4-3-3-3-3-3-3-5-4-7-7-7-7-5-4-7-|
|-77--7--77--7--77--7--77--7--77--7--77--7--77--7-3-2-3-3-3-3-3-3-3-2-7-7-7-7-3-2-7-|
|-55--5--55--5--55--5--55--5--55--5--55--5--55--5-----1-1-1-1-1-1-----5-5-5-5-----5-|
 [pm]   [pm]   [pm]   [pm]   [pm]   [pm]   [pm]                                    X2
|---|
|---|
|---|
|-7-|
|-7-|
|-5-|
______________________________________________________________________________________

No me sé la parte que sigue pero lo de más si:
______________________________________________________________________________________
Ya nuestro entorno...

Guitarra 1 y 2
|-----------------------------------------------------------------|
|-----------------------------------------------------------------|
|-------------------7-10--9-7--10-9-7-----------------------------|
|-7-------5-7-------7-10--9-7--10-9-7--7--------5-7---7-3------5--|
|-7-------5-7-------5--8--7-5---8-7-5--7--------5-7---7-3------5--|
|-5-------3-5--------------------------5--------3-5---5-1------3--|

|----------------------------------------------------------------------------------------------|
|----------------------------------------------------------------------------------------------|
|-----------------------7-1010101010-9-7-7-7-7-7-7---------------------------------------------|
|-7-7-7-7-7-5-7-7-7-7-7-7-1010101010-9-7-7-7-7-7-7-7-7-7-7-7-5-7-7-7-7-7-5-3-3-3-3-3-5-5-5-5-5-|
|-7-7-7-7-7-5-7-7-7-7-7-5--8-8-8-8-8-7-5-5-5-5-5-5-7-7-7-7-7-5-7-7-7-7-7-5-3-3-3-3-3-5-5-5-5-5-|
|-5-5-5-5-5-3-5-5-5-5-5----------------------5-5-5-5-5-5-5-5-3-5-5-5-5-5-3-1-1-1-1-1-3-3-3-3-3-|
                                                                                              X3
Outro
|-----------------------------------------------------------------|
|-----------------------------------------------------------------|
|-----------------------------------------------------------------|
|-7-------------5-7-------------5-7-------------7--3-3-3-5-3-5--7-|
|-7-------------5-7-------------5-7-------------7--3-3-3-5-3-5--7-|
|-5-------------3-5-------------3-5-------------5--1-1-1-3-1-3--5-|
                                                   [palm Mute]

Fin
por Christian_

            
            
Suggest correction
Creating personal tab
Creating personal tab
You can edit any tab online and save it as your Personal.

You can edit, replace or remove any tab part or add personal notes – all changes will be seen only by you.

Personal tabs can be accessed anytime from any device, even offline.
Learn more »
Give kudos to tab author, rate the tab!
1 2 3 4 5
comments
print report bad tab
guest
Wanna post a correction for this tab? Suggest correction