Oops, an error
Loading. Please wait.

Seguimos Siendo tab

662 views 1 this week
no commentswrite comment
1 2 3 4 5
3 more votes to show rating
add to favorites
×
Save as Personal and add changes to this tab that will be seen only by you. Learn more ›
×
You can save this tab as Personal to edit and correct it or add notes. All changes will be seen only by you. Learn more »
launch autoscroll
font size
0
reset
how to read this tab
guitar tuner
edit
Autoscroll
slow
fast
+/-
esc
set tempo
stop
Bueno, esta es la primera kanzión ke me sako, espero k os sirva.
Intentaré sakarme unas kuantas más.

INTRO

e ---------------------------------------------
B -3-3-0-1---------3-3-1-0-3-3-0-1------0------
G ----------2--2-2------------------2-2---0-2--        A
D ---------------------------------------------

e ----------------------------------------------------------------
B -3-3-0-1---------3-3-1-0-3-3-0-1------0---------1-3-5-5-5-6-3-5-  B
G ----------2--2-2------------------2-2---0-2---2-----------------
D ----------------------------------------------------------------

e ---------------------------------------------
B -3-3-0-1---------3-3-1-0-3-3-0-1------0------
G ----------2--2-2------------------2-2---0-2--      C
D ---------------------------------------------

La estructura de la intro es: A + B + C + B+ C
Si no lo pilláis, eskucharlo.

Después, empieza la letra. Cada verso lo repiten, es decir, 
cada versosuena dos veces, la segunda con coros:

         A                   G          F                A 
Somos skinheads, y en la barra nadie resiste, a nuestro lao
            C        D    C         D      C  A                    G
Porque nos gusta el buen beber la buena zerveza las ostias en el bar
              F           A
bebe lo que puedas sin pagar

Si no os aklarais eskucharlo. Las kintas se van tokando siguiendo
el ritmo con golpes sekos. Con esto se toka el resto de la kanzión. 
Ahora va otra estrofa:

'Seguimos siendo los mismos pero mas violentos y alkoholizos
No konsentimos la humillación, y golpeamos a todos los que nos molestan
sin excepción.'

Ahora se toka otra vez la intro entera y otras dos estrofas, en las ke 
kantan todo kon koros:

'Somos Non Servium, provokadores mostoleños, me kago en Dios
Y lucharemos por defender la independencia de la bandera mostoleña
me kago en Dios'

Ahora, toka otras dos estrofas pero tarareadas kon 'lo lo lo lo lo' y 
en vez de kintas, toka el punteo de la intro.

Pos eso es todo, no es muy difícil (sobre todo si me la he podio sakar 
yo, jeje) y espero ke os sirva.

RESISTENCIA OI!    

Dudas, sugerencias y ganas de borratxera: osksp@

            
            
Suggest correction
Creating personal tab
Creating personal tab
You can edit any tab online and save it as your Personal.

You can edit, replace or remove any tab part or add personal notes – all changes will be seen only by you.

Personal tabs can be accessed anytime from any device, even offline.
Learn more »
Give kudos to tab author, rate the tab!
1 2 3 4 5
comments
print report bad tab
guest
Wanna post a correction for this tab? Suggest correction