Oops, an error
Loading. Please wait.

Torpedo tab

version 1
version 1

Whole song

1,145 views 6 this week
no commentswrite comment
1 2 3 4 5
3 more votes to show rating
add to favorites
×
Save as Personal and add changes to this tab that will be seen only by you. Learn more ›
×
You can save this tab as Personal to edit and correct it or add notes. All changes will be seen only by you. Learn more »
launch autoscroll
font size
0
reset
how to read this tab
guitar tuner
edit
Autoscroll
slow
fast
+/-
esc
set tempo
stop
El riff del principio es el que le da a la canción un toque especial
Y es utilizado habitualmente en la misma. para conseguir la distorsión
perfecta hay que tocarla con los dedos(piccicato) o tener
un amplificador de marca marshall con efectos:

E --------  --------------
B --------  --------------
G --------  --------------
D --------  --------------
A ---5-7-8  ---5-7-8-7-5--
E -5------  -5-----------8

E --------  --------------
B --------  --------------
G --------  --------------
D --------  --------------
A ---5-7-8  ---5-7-8-7-5-
E -6------  -6-----------8

E --------------------
B --------------------
G --------------------
D -----------7-7-75---
A -------5-7-------875
E -5-5-5--------------

Verso:

RE
Una canción hecha a tu medida,
LA#
Esto es para ti bala perdida,
LA
Joven oculto, en la obscuridad.

RE
Macarrismo puro sin complejos,
LA#
La vida normal te queda lejos,
LA
Fiel amante, de la obscuridad.

RE
De la obscuridad ?de la obscuridad?
LA#
De la obscuridad ?de la obscuridad?
LA
De la oscuridaaaaaaaaaaad  TORPEDO!

Riff X2.

RE
Muchos años experimentando,
LA#
Sensaciones que nunca entendieron,
LA
Joven torpedo, de la obscuridad.

RE
Y si hay algo que te has aprendido,
LA#
Es que no van a poder contigo,
LA
Joven oculto, en la obscuridaaaaad.

RE
En la obscuridad ?en la obscuridad?
LA#
En la obscuridad ?en la obscuridad?
LA
En la oscuridaaaaaaaaaaad  TORPEDO!

Riff X2.

Sólo final del tema del disco (en la maqueta no está),
Distorsión inicial (o piccicato):

E --------------------------------------------
B --------------------------------------------
G --------------------------------------------
D --------------------------------------------
A -555555555--7-888888888-8754-4444444444-475-
E --------------------------------------------


E --------------------------------------------
B --------------------------------------------
G -555555555--7-888888888-8754-4444444444-475-
D --------------------------------------------
A --------------------------------------------
E --------------------------------------------


Aquí cambia la distorsión:

E --------------------------------17---------------------------
B ----------------------13-15-15/----15/-----------------------
G -7%-7-9-10-9-10-12-14------------------10-9-10-9-5--4-5555555
D -------------------------------------------------------------
A -------------------------------------------------------------
E -------------------------------------------------------------

FIN

Leyenda del sólo:
%= vibratto
/ después de una nota= levantar la cuerda

            
            
Suggest correction
Creating personal tab
Creating personal tab
You can edit any tab online and save it as your Personal.

You can edit, replace or remove any tab part or add personal notes – all changes will be seen only by you.

Personal tabs can be accessed anytime from any device, even offline.
Learn more »
Give kudos to tab author, rate the tab!
1 2 3 4 5
comments
print report bad tab
guest
Wanna post a correction for this tab? Suggest correction