Oops, an error
Loading. Please wait.

Trata De Blancas chords

29 views 1 this week
no commentswrite comment
1 2 3 4 5
3 more votes to show rating
add to favorites
×
Save as Personal and add changes to this tab that will be seen only by you. Learn more ›
×
You can save this tab as Personal to edit and correct it or add notes. All changes will be seen only by you. Learn more »
launch autoscroll
font size
0
reset
transpose
0
reset
display chords
guitar tuner
edit
Autoscroll
slow
fast
+/-
esc
set tempo
stop
Strumming
There is no strumming pattern for this song yet. and get +5 IQ
Intro: A C-F E-G E-A
Después empieza a cantar
A                  C-F            E-G
Son traídas de otro lugar  exportadas
                      E-A
Bajo falsas promesas de una vida feliz
A             C-F           E-G
Una vida que pasaran condenadas
                      E-A
Pork serán esclavas de seres miserables
A      C-F           E-G
Solo se van a encontrar
                E-A
Con un castigo q dure eternamente
A        C-F      E-G
Perderán su libertad
                       E-A
Cuando en sus cuellos coloren grandes yugos

Así sigue asta:

A         A-C-F     F-E-C          DO-B-G      DO-G
Alguien tiene q reaccionar, trata de blancas trato de muerte
Escuxando el tema van a tazar al toke

Después vienen estos akordes

A F C A X4 WAAAA!!!
Después:
A C-F E-C B-G DO-G Haaaaaaaaa!
Verso:
A           C-F
Son traídas desde un lugar lejano
E-C                B-G      C-G
Listas para entregar a seres miserables
Por la ruina?
     A            G-A         G-LA
Están vendidas, están vendidas, están vendidas
F    E    G  A
a una muerte en vida
                    x2

Akordes: LA SOL-FA DO-SI-SOL LA
Tiene unos cambios pero esas son las notas

Verso:
Debe ser triste q?
Después kambia de ritmo:
A F C A
A                             F-C
Hay k joderce k existen unas leyes
A                               F-C
Echas a la medida del mundo de los rikos
Donde tengamos?
Pork pork porkeeeeeeeeeee
A C-F E-C B-G DO-Gx2
Punteo:

E-----------------------------------------------------------
B-----------------------------------------------------------
G-9-9-9-9----9-10-10-10-10-12-10-9-9-9-9----9-7-10-9-7-10-9-
D---------10-----------------------------10-----------------


E-----------------------------------------------------------
B-----------------------------------------------------------
G-9-9-9-9----9-10-10-10-10-12-10-9-9-9-10-9-10-12-----------
D---------10------------------------------------------------


E---------------------------------------------|
B-10-10-10-10----10-13-13-13-12-13-12---------|
G-------------10----------------------12-12-12|
D---------------------------------------------|

|----------------------------|
|-13----13-12-13-12-10----10-|
|-----12----------------12---|
|----------------------------|

E---------------------------------------------|
B-10-10-10-10----10-13-13-13-12-13-12---------|
G-------------10----------------------12-12-12|
D---------------------------------------------|

|----------------------------|
|-13----13-15-15-13-12-13-10-|
|-----12---------------------|
|----------------------------|

E------------------------------------------------------|
B-10-10-10-10-13-12-13-10-10-10-10-13-12-13------------|
G-------------------------------------------12-12-12-10|
D------------------------------------------------------|

|--------------------------|
|-13---13-12-13-12-10---10-|
|----12---------------12---|
|--------------------------|

E----------------------------------------------------|
B-10-10-10-10-13-12-13-10-10-10-10-13-12-13----------|
G-------------------------------------------12-12-12-|
D----------------------------------------------------|

|-------------------------|
|-13----13-15-15-13-12-10-|
|----12-------------------|
|-------------------------|

|---------|
|13-12-10-|
|---------|
|---------|X3 Waaaaaaaaaaaaaaa!

    A           G-A            G-LA
Están vendidas, estan vendidas, estan vendidas
F  E  G  A
a una muerte en vida
                    x2
Ahí termina
Wen tema, peazo de banda, ta muy fácil y disfrútenla
Cualquier duda a mi mail
Pernobukes en la brecha
Kule hasta la muerte
titipunkuleXpirulo21

            
            
Suggest correction
Creating personal tab
Creating personal tab
You can edit any tab online and save it as your Personal.

You can edit, replace or remove any tab part or add personal notes – all changes will be seen only by you.

Personal tabs can be accessed anytime from any device, even offline.
Learn more »
Give kudos to tab author, rate the tab!
1 2 3 4 5
comments
print report bad tab
guest
Wanna post a correction for this tab? Suggest correction