Oops, an error
Loading. Please wait.

Mi Fortaleza chords

35 views 1 this week
no commentswrite comment
1 2 3 4 5
3 more votes to show rating
add to favorites
×
Save as Personal and add changes to this tab that will be seen only by you. Learn more ›
×
You can save this tab as Personal to edit and correct it or add notes. All changes will be seen only by you. Learn more »
launch autoscroll
font size
0
reset
transpose
0
reset
display chords
guitar tuner
edit
Autoscroll
slow
fast
+/-
esc
set tempo
stop
Strumming
There is no strumming pattern for this song yet. and get +5 IQ
Intro:
(Lo siguiente lo hacen el teclado y el bajo
pero pueden tocarlo en la viola así)

Deja sonando un F#m
1)----------------------------------------------------------|
2)----------------------------------------------------------|
3)----2-1---------------------------------------------------|
4)--4-----4-2-----------------------------------------------|
5)----------------------------------------------------------|
6)----------------------------------------------------------|

Deja sonando un Bm


1)----------------------------------------------------------|
2)----------------------------------------------------------|
3)----------------------------------------------------------|
4)-0-2-0---0------------------------------------------------|
5)-------4---4-2-4-2-0-2-0----------------------------------|
6)-------------------------4-22-44-55--7--------------------|

F#m E X8

F#m
Has intentado rodearme y no has podido

Has intentado cegarme y te veo

Has intentado calmarnos
D                      E
 No viste que la tormenta esta dentro
F#m
Solo hablan y también exigen

Nunca entendieron nada

Busca refugio porque están listos
D                    E         Bm
No van a tener piedad de vos
                                  C#m
Y ahora es el momento y mas positivo estas
                   Bm
Ya no sos el mismo
                       C#m        Bm
Fortaleciendo tu conexión estas

                                  C#m
Y ahora es el momento y mas positivo estas
                       Bm
El tiempo es distinto
          C#m
Fortalecido

F#m               E         F#m                E
Cuando a la deriva estés y pienses que no podes lograrlo
F#m                 E                     F#m
Es transformar esa energía la tomas y es tu fuerza más
         E
Positivo estas     X2


Solo

Se repiten las anteriores estrofas,
cambiando la batería pero con los mismos acordes.

Fin.

            
            
Suggest correction
Creating personal tab
Creating personal tab
You can edit any tab online and save it as your Personal.

You can edit, replace or remove any tab part or add personal notes – all changes will be seen only by you.

Personal tabs can be accessed anytime from any device, even offline.
Learn more »
Give kudos to tab author, rate the tab!
1 2 3 4 5
comments
print report bad tab
guest
Wanna post a correction for this tab? Suggest correction