Oops, an error
Loading. Please wait.

Reggae En El Universo bass

68 views 3 this week
no commentswrite comment
1 2 3 4 5
3 more votes to show rating
add to favorites
×
Save as Personal and add changes to this tab that will be seen only by you. Learn more ›
×
You can save this tab as Personal to edit and correct it or add notes. All changes will be seen only by you. Learn more »
launch autoscroll
font size
0
reset
guitar tuner
edit
Autoscroll
slow
fast
+/-
esc
set tempo
stop
antes de tocarla, vean bien las BASES al final
de esta tablatura. van a entender mejor el tema,
si lo siguen de esta forma.

++++++++++++


INTRO: BASE 1
G-----------------------------
D-----------------------------
A--------2-0-0--------2-0-0---
E-0-3--0-------3----0-------3-

ESTROFA BASE 2
G-------------------
D--2--2--2----------
A------2-----0-0--0-
E---------------0---
Toda una controversia
nadie tiene control con lo que se expresa
Tu accion una reaccion
Es el impacto de nuestra evolucion
Dominio de la nueva generacion
Oxigeno en tiempo de libercion
Tuvo de energia, proyeccion
Hagan correr la voz

ESTRIBILLO: BASE 1
G-----------------------------
D-----------------------------
A--------2-0-0--------2-0-0---
E-0-3--0-------3----0-------3-
Reggae del universo
corran la voz todos quieren saberlo
Dub para tu corazon
Es el remedio a tu afliccion

ESTROFA: BASE 2
G-------------------
D--2--2--2----------
A------2-----0-0--0-
E---------------0---
Si queremos ser lo que deseamos ser
y todo esto parece ser
un mal juego para hacerte caer
BASE 4
G-------------------
D--2--2--2----------
A------2-----0-0----
E-------------------
Nosotros somos el ritmo
BASE 5
G-------------------
D-------------------
A------------0-0----
E-------------------
Queremos que sa distinto
Marcamos el pulso en esto
Nuestro manifiesto... es

ESTRIBILLO: BASE 2
Reggae del universo
corran la voz todos quieren saberlo
Dub para tu corazon
Es el remedio a tu afliccion

---

SOLO DE TECLADO:
BASE 3 X (2 VECES)
G---------------------
D--5---5---4----2---2-
A----5---5--------2---
E---------------------

BASE 2 (2 VECES)
G-------------------
D--2--2--2----------
A------2-----0-0--0-
E---------------0---

---

REPITE ESTROFA: BASE 2
REPITE ESTRIBILLO: BASE 1
FINAL.

++++++++++++++++++++++++
++++++++++++++++++++++++
++++++++++++++++++++++++
++++++++++++++++++++++++

TODAS LAS BASES:

BASE 1
G-----------------------------
D-----------------------------
A--------2-0-0--------2-0-0---
E-0-3--0-------3----0-------3-

BASE 2
G-------------------
D--2--2--2----------
A------2-----0-0--0-
E---------------0---
(esta es la base que mas variaciones sufre.
en cada compás van a encontrar algo distinto.
la gracia está en poder tocarla sobre Em-A)

BASE 3
G---------------------
D--5---5---4----2---2-
A----5---5--------2---
E---------------------

BASE 4
G-------------------
D--2--2--2----------
A------2-----0-0----
E-------------------

BASE 5
G-------------------
D-------------------
A------------0-0----
E-------------------


++++++++++++++++++++++++

ojalá la puedan tocar bien!!!

saludos!
tin



            
            
Suggest correction
Creating personal tab
Creating personal tab
You can edit any tab online and save it as your Personal.

You can edit, replace or remove any tab part or add personal notes – all changes will be seen only by you.

Personal tabs can be accessed anytime from any device, even offline.
Learn more »
Give kudos to tab author, rate the tab!
1 2 3 4 5
comments
print report bad tab
guest
Wanna post a correction for this tab? Suggest correction