Oops, an error
Loading. Please wait.

Alive And Kicking tab

version 3
version 3

Whole song

Interactive

8,650 views 3 this week
8 commentsread comments
1 2 3 4 5
x 3
add to favorites
×
Save as Personal and add changes to this tab that will be seen only by you. Learn more ›
×
You can save this tab as Personal to edit and correct it or add notes. All changes will be seen only by you. Learn more »
launch autoscroll
font size
0
reset
how to read this tab
guitar tuner
edit
Autoscroll
slow
fast
+/-
esc
set tempo
stop
Alive & Kicking
by Nonpoint


Tuning: Drop A
1 = b   4=A
2 = f#  5=E
3 = d   6=A

Key: \ = slide down
     / = slide up
     p = pull-off
     h = hammer-on
     H = Harmonize
     b = bend to following note
     r = release bend to following note

Intro and Verse
1-|--------------------------------|
2-|---7-7-----9-9----6-6-6---6-4-4-|
3-|--------------------------------|
4-|--------------------------------|
5-|--------------------------------|
6-|--------------------------------|

Pre-Chorus
1-|--------------------------------------------------------------|
2-|--------------------------------------------------------------|
3-|------------------------7-------------------------------------|
4-|----------------------7---7p5---------------10----5-5-6-6-7-7-|
5-|-0-0--0--0-0-0----------------8-0-0--0--0-0-10--0-5-5-6-6-7-7-|
6-|-0-0--0--0-0-0--0-3-0-----------0-0--0--0-0-10--0-5-5-6-6-7-7-|


-------------------------------------------------------------------|
--------------------------10---------------------------------------|
----------------------/10----10p9----------------------------------|
----------------------------------12-------------10----3-3-4-4-5-5-|
-0-0--0--0-0-0-----------------------0-0--0--0-0-10--0-3-3-4-4-5-5-|
-0-0--0--0-0-0--0-3-0----------------0-0--0--0-0-10--0-3-3-4-4-5-5-|

Chorus
1-|---------------------------------------------------------|
2-|---------------------------------------------------------|
3-|-7-11-11--11--11-11---11-11--11-11-11-11-----------------|
4-|-----------------------------------------3-3-3-3-3-3-3-3-|
5-|-5-9--9---9---9--9----9--9---9--9--9--9--3-3-3-3-3-3-3-3-|
6-|-0-0--0---0---0--0----0--0---0--0--0--0--3-3-3-3-3-3-3-3-|


-----------------------------------------------------------------|
-----------------------------------------------------------------|
-----------------------------------------------------------------|
-7-7-7-7-7-7-7-7-------------2-2-2h3-3-3-3-3-3-3-3-3-3-3-3-3-3-3-|
-7-7-7-7-7-7-7-7-------5-5-5-0-0-0h1-1-1-1-1-1-1-3-3-3-3-3-3-3-3-|
-7-7-7-7-7-7-7-7-0-0-0---------------------------3-3-3-3-3-3-3-3-|


-----------------|
-----------------|
-----------------|
-1-1-1-1-1-3-3-3-| x2
-1-1-1-1-1-3-3-3-|
-1-1-1-1-1-3-3-3-|

Bridge 1
1-|--------------------------------------------------------------------|
2-|--------------------------------------------------------------------|
3-|------------------------------------------------------7-------------|
5-|-------------10----5-5-6-6-7-7----------------------7---7p5---0-----|
5-|-0-0--0--0-0-10--0-5-5-6-6-7-7-0-0--0--0-0-0----------------8-0-----|
6-|-0-0--0--0-0-10--0-5-5-6-6-7-7-0-0--0--0-0-0--0-3-0-----------0-----|

          H
--------------------------|
--------------------------|
--------------------------|
----------5---------------|
----------5---------------|
----------5---------------|

Mid-Section
1-|----------------------------|  |----------------------------|
2-|----------------------------|  |----------------------------|
3-|----------------------------|  |----------------------------|
4-|---------0--------0--1--2---|  |---------0--------0--1--2---|
5-|---3-2-----3-2-8--0--1--2---|  |---3-2-----3-2-8\-0--1--2---|
6-|-0-----3----------0--1--2---|  |-0-----3----------0--1--2---|


----------------------------|
----------------------------|
----------------------------|
---------0--------1--3--0---| x6
---3-2-----3-2-8\-1--3--0---|
-0-----3----------1--3--0---|

Bridge 2
1-|--------------------------------|
2-|--------------------------------|
3-|------------------------7-------|
4-|----------------------7---7p5---|
5-|-0-0--0--0-0-0----------------8-|
6-|-0-0--0--0-0-0--0-3-0-----------|

Outro
1-|--------------------------------------------------------------|
2-|--------------------------------------------------------------|
3-|------------------------7-------------------------------------|
4-|----------------------7---7p5---------------10----5-5-6-6-7-7-|
5-|-0-0--0--0-0-0----------------8-0-0--0--0-0-10--0-5-5-6-6-7-7-|
6-|-0-0--0--0-0-0--0-3-0-----------0-0--0--0-0-10--0-5-5-6-6-7-7-|


-------------------------------------------------------------------|
--------------------------10---------------------------------------|
----------------------/10----10p9----------------------------------|
----------------------------------12-------------10----3-3-4-4-5-5-|
-0-0--0--0-0-0-----------------------0-0--0--0-0-10--0-3-3-4-4-5-5-|
-0-0--0--0-0-0--0-3-0----------------0-0--0--0-0-10--0-3-3-4-4-5-5-|


-----------------------------------|
-----------------------------------|
--------------------7--------------|
------------------7---5b7r5--------|
-0-0--0--0-0-0--5-----------8-0----|
-0-0--0--0-0-0----------------0----|

            
            
Suggest correction
Creating personal tab
Creating personal tab
You can edit any tab online and save it as your Personal.

You can edit, replace or remove any tab part or add personal notes – all changes will be seen only by you.

Personal tabs can be accessed anytime from any device, even offline.
Learn more »
Give kudos to tab author, rate the tab!
1 2 3 4 5
comments
print report bad tab
8 comments total. Showing first comments.
+1 reply
xKnifekillerx 393 Sep 15, 2009 05:57 AM

You mean Drop Bb not Drop A :]]
sounds amazing in Drop Bb.

nice work.

0 reply
andrew2xtreme 90 Dec 17, 2009 05:03 AM

this tab is the right one if you hear the song or the shitty GP tab you'll learn the tempos which are hard
nice tab

0 reply
Schway 20 Mar 11, 2010 02:20 AM

The intro verses is a little off it should be 66 then 88 then 555 then 533 other than that great

guest
Wanna post a correction for this tab? Suggest correction