Oops, an error
Loading. Please wait.

Misery tab

446 views 1 this week
no commentswrite comment
1 2 3 4 5
2 more votes to show rating
add to favorites
×
Save as Personal and add changes to this tab that will be seen only by you. Learn more ›
×
You can save this tab as Personal to edit and correct it or add notes. All changes will be seen only by you. Learn more »
launch autoscroll
font size
0
reset
how to read this tab
guitar tuner
edit
Autoscroll
slow
fast
+/-
esc
set tempo
stop
Nonpoint: Misery

Transcribed by: mysticguitar77

YouTube Channel: MysticGuitar77

Date last modified: October 2, 2014

Tuning: Drop C (C,G,C,F,A,D)

Riff 1   "You made an addict out of me without even knowing..."
D|------------------------------------------|
A|------------------------------------------|
F|-10-12-12-8-0-7-8-0-5*--------10h12-------|
C|-----------------------0-5*-0-------10h12-|
G|------------------------------------------|
C|------------------------------------------|
                         *    *

Play Riff 1 x2

Riff 2
D|-------------------------------|
A|-------------------------------|
F|-------------------------------|
C|-5--3-0-3-0-3-5--3-3-0-3-5-3-0-| x3
G|-5--3-0-3-0-3-5--3-3-0-3-5-3-0-|
C|-5--3-0-3-0-3-5--3-3-0-3-5-3-0-|

D|-------------------------------|
A|-------------------------------|
F|-3-3-3-3-3-3-3---7-7-7-7-------|
C|-3-3-3-3-3-3-3---7-7-7-7-3-3-3-|
G|-1-1-1-1-1-1-1-x-5-5-5-5-3-3-3-|
C|---------------x---------3-3-3-|

Riff 3   "I see you're feeling rejected..."
D|--------------------------------------------------------------|
A|--------------------------------------------------------------|
F|--------------------------------------------------------------|
C|-5--3-0-3-0-3-5--3-3-0-3-5-3-0-5--3-0-3-0-3-5--3-3-0-3-5-rest-|
G|-5--3-0-3-0-3-5--3-3-0-3-5-3-0-5--3-0-3-0-3-5--3-3-0-3-5------|
C|-5--3-0-3-0-3-5--3-3-0-3-5-3-0-5--3-0-3-0-3-5--3-3-0-3-5------|

D|-------------------------------------------------------------|
A|-------------------------------------------------------------|
F|-------------------------------3-3-3-3-3-3-3---7-7-7-7-------|
C|-5--3-0-3-0-3-5--3-3-0-3-5-3-0-3-3-3-3-3-3-3---7-7-7-7-3-3-3-|
G|-5--3-0-3-0-3-5--3-3-0-3-5-3-0-1-1-1-1-1-1-1-x-5-5-5-5-3-3-3-|
C|-5--3-0-3-0-3-5--3-3-0-3-5-3-0---------------x---------3-3-3-|

Play Riff 3 x2   "I'm peeling the surface back to expose..."

Riff 4   "It's gonna alter my..."
D|----------------------------------------------------------------------------|
A|----------------------------------------------------------------------------|
F|----------------------------------------------------------------5*-5*-5*-5*-|
C|-1-0-1-0-0~----1-0-1-0-0----1-0-1-0-0---1-----------------------------------|
G|-1-0-1-0-0~----1-0-1-0-0----1-0-1-0-0---1-----------------------------------|
C|-1-0-1-0-0~----1-0-1-0-0----1-0-1-0-0---1-0-1-0-1-3-0-0-4-0-5-0-------------|
     * * * *       * * * *      * * * *

Play Riff 2 x2   "You made an addict out of me without even knowing..."
                  
Riff 2 (chord change, only played this way to end each chorus in the song)
D|-------------------------------|
A|-----------------3-3-3-3-------|
F|-3-3-3-3-3-3-3---2-2-2-2-------|
C|-3-3-3-3-3-3-3---0-0-0-0-3-3-3-|
G|-1-1-1-1-1-1-1-x-0-0-0-0-3-3-3-|
C|---------------x-0-0-0-0-3-3-3-|

Riff 5   "The only way that I could describe this..."
D|--------------------------------------------------------------|
A|--------------------------------------------------------------|
F|--------------------------------------------------------------|
C|-5--3-0-3-0-3-5--3-3-0-3-5-3-0-5--3-0-3-0-3-5--3-3-0-3-5-rest-|
G|-5--3-0-3-0-3-5--3-3-0-3-5-3-0-5--3-0-3-0-3-5--3-3-0-3-5------|
C|-5--3-0-3-0-3-5--3-3-0-3-5-3-0-5--3-0-3-0-3-5--3-3-0-3-5------|
      * * * * *    * * * * * * *    * * * * *    * * * * *

D|-------------------------------------------------------------|
A|-------------------------------------------------------------|
F|-------------------------------3-3-3-3-3-3-3---7-7-7-7-------|
C|-5--3-0-3-0-3-5--3-3-0-3-5-3-0-3-3-3-3-3-3-3---7-7-7-7-3-3-3-|
G|-5--3-0-3-0-3-5--3-3-0-3-5-3-0-1-1-1-1-1-1-1-x-5-5-5-5-3-3-3-|
C|-5--3-0-3-0-3-5--3-3-0-3-5-3-0---------------x---------3-3-3-|
      * * * * *    * * * * * * *

Play Riff 5 x2   "Do you really need a reason..."
Play Riff 4 x1   "It's gonna alter my..."
Play Riff 2 x2   "You made an addict out of me without even knowing..."

Riff 6   "So how can I look away..."
D|------------------------------------------------------------------------------------------|
A|------------------------------------------------------------------------------------------|
F|------------------------------------------------------------------------------------------|
C|-1--1-1-1-1-1-----------------3--3-3-3-3-3-----------------0-1--1-1-1-1-1-1-1-------------|
G|-1--1-1-1-1-1-3-3-3-3-3-3-1-0-3--3-3-3-3-3-3-3-3-3-3-3-5-5-0-1--1-1-1-1-1-1-1-3-3-3-3-1-0-|
C|-1--1-1-1-1-1-----------------3--3-3-3-3-3-----------------0-1--1-1-1-1-1-1-1-------------|
      * *   * *                    * *   * *                      * *   * * * *

D|--------------------------------------------------------------------------------------|
A|--------------------------------------------------------------------------------------|
F|-------5-5---3-3----------------------------------------------------------------------|
C|-3-3---5-5---3-3---3-3--1--0-1-0-0-0-0-0-0-0-0-0-0-0-0-1--0-1-0-0-0-0-0-0-0-0-0-0-0-0-|
G|-3-3-x-3-3-x-1-1-x-3-3--1--0-1-0-0-0-0-0-0-0-0-0-0-0-0-1--0-1-0-0-0-0-0-0-0-0-0-0-0-0-|
C|-3-3-x-----x-----x-3-3--1--0-1-0-0-0-0-0-0-0-0-0-0-0-0-1--0-1-0-0-0-0-0-0-0-0-0-0-0-0-|
                                   * * * * * * * * * * *          * * * * * * * * * * *

D|----------------------------------------------------------------|
A|----------------------------------------------------------------|
F|----------------------------------------------------------------|
C|-1--0-1-0-0-0-0-0-0-0-0-0-0-0-0-1--0-1-0-0-0-0-0-0-0-0-0-0-0-0~-|
G|-1--0-1-0-0-0-0-0-0-0-0-0-0-0-0-1--0-1-0-0-0-0-0-0-0-0-0-0-0-0~-|
C|-1--0-1-0-0-0-0-0-0-0-0-0-0-0-0-1--0-1-0-0-0-0-0-0-0-0-0-0-0-0~-|
            * * * * * * * * * * *          * * * * * * * * * * *

Play Riff 2 x3   "You made an addict out of me without even knowing..."
                  (cuts in late first time through)

Ending   "Company, company..."
D|-----------------------------------------------------------------------------------------------|
A|---------------------------------------------------------------------------------3-3-3-3-------|
F|-3-3-3-3-3-3-3---7-7-7-7---------3-3-3-3-3-3-3---7-7-7-7---------3-3-3-3-3-3-3---2-2-2-2-------|
C|-3-3-3-3-3-3-3---7-7-7-7-3-3-3---3-3-3-3-3-3-3---7-7-7-7-3-3-3---3-3-3-3-3-3-3---0-0-0-0-3-3-3-|
G|-1-1-1-1-1-1-1-x-5-5-5-5-3-3-3-x-1-1-1-1-1-1-1-x-5-5-5-5-3-3-3-x-1-1-1-1-1-1-1-x-0-0-0-0-3-3-3-|
C|---------------x---------3-3-3-x---------------x---------3-3-3-x---------------x-0-0-0-0-3-3-3-|

Enjoy!!

            
            
Suggest correction
Creating personal tab
Creating personal tab
You can edit any tab online and save it as your Personal.

You can edit, replace or remove any tab part or add personal notes – all changes will be seen only by you.

Personal tabs can be accessed anytime from any device, even offline.
Learn more »
Give kudos to tab author, rate the tab!
1 2 3 4 5
comments
print report bad tab
guest
You may want to rate the tab now too:
select rating
Wanna post a correction for this tab? Suggest correction