Oops, an error
Loading. Please wait.

Razors tab

version 1
version 1

Whole song

Interactive

260 views 1 this week
1 commentread comment
1 2 3 4 5
3 more votes to show rating
add to favorites
×
Save as Personal and add changes to this tab that will be seen only by you. Learn more ›
×
You can save this tab as Personal to edit and correct it or add notes. All changes will be seen only by you. Learn more »
launch autoscroll
font size
0
reset
how to read this tab
guitar tuner
edit
Autoscroll
slow
fast
+/-
esc
set tempo
stop
Nonpoint: Razors

Transcribed by: mysticguitar77

YouTube Channel: MysticGuitar77

Date last modified: October 2, 2014

Tuning: Drop C (C,G,C,F,A,D)

Riff 1
D|---------------------------------------------------|
A|---------------------------------------------------|
F|---------------------------------------------------|
C|---------------------------------------------1-1-0-|
G|---------------5-5---------------------5-5---1-1-0-|
C|-3-2b-0-3-2b-0-----0-1-0-3-2b-0-3-2b-0-----0-1-1-0-|
                                               *

Play Riff 1 x7

Riff 1 ending fill
D|-----------|
A|-----------|
F|-----------|
C|-----------|
G|-5h7-------|
C|-----5h7-0-|

Riff 2   "It's my words that will make this right..." (let all notes ring out)
D|-----------------------------------------|
A|-----------------------------------------|
F|------------------------------12------12-|
C|-----5-----5-----3-----3---10------10----|
G|---3-----2-----1-----0---8-------7-------|
C|-3-----2-----1-----0---------------------|

Riff 3   "Razors..."
D|---------------------------------------------------------------|
A|---------------------------------------------------------------|
F|-8-8-8-8-8-8-8-8-8-8-8-8-8\3-3-3/5-5-5-5-5-5-5-----------------|
C|-8-8-8-8-8-8-8-8-8-8-8-8-8\3-3-3/5-5-5-5-5-5-5-5-5-5-5-5-5-5-5-|
G|-6-6-6-6-6-6-6-6-6-6-6-6-6\1-1-1/3-3-3-3-3-3-3-5-5-5-5-5-5-5-5-|
C|-----------------------------------------------5-5-5-5-5-5-5-5-|

Play Riff 3 x4   "Just like razors..."
Play Riff 1 x4   "Don't even try to open your mouth..."
Play Riff 1 ending fill
Play Riff 2 x1   "You can't hurt what you can't see..."
Play Riff 3 x4   "Just like razors..."
Play Riff 1 x2

Riff 4
D|-----------------------------------------------------------|
A|-----------------------------------------------------------|
F|-----------------------------------------------------------|
C|-----------------------------------------------------------|
G|------------------------3---5----3---5-----6-----1---1h3---|
C|-1-0-0--0-1-0-3-1-0-1-0---0----0---0---0-0---0-0---0-----3-|

D|----------------------------------------------------------|
A|----------------------------------------------------------|
F|----------------------------------------------------------|
C|----------------------------------------------------------|
G|------------------------1---3----1---3-1-0-1-0------------|
C|-1-0-0--0-1-0-3-1-0-1-0---0----0---0-----------3-1-0-/5-4-|

D|-----------------------------------------------------------|
A|-----------------------------------------------------------|
F|-----------------------------------------------------------|
C|-----------------------------------------------------------|
G|------------------------3---5----3---5-----6-----1---1h3---|
C|-1-0-0--0-1-0-3-1-0-1-0---0----0---0---0-0---0-0---0-----3-|

D|----------------------------------------------------|
A|----------------------------------------------------|
F|----------------------------------------------------|
C|--------------------------------7-----7-----3-----3-|
G|----------------------3h5-----4-----3-----1-----0---|
C|-1-0-0--0-1-0-3-1-0-1-----5-4-----3-----1-----0-----|

Riff 5 (let notes ring out)
D|-------------------------|
A|-------------------------|
F|-------------------------|
C|-----5-----5-----3-----3-| x3
G|---3-----2-----1-----0---|
C|-3-----2-----1-----0-----|

D|-----------------------------------------------|
A|-----------------------------------------------|
F|------12------12-----10-----10------12------12-|
C|---10------10------8------8------10------10----|
G|-8-------7-------6------5------8-------7-------|
C|-----------------------------------------------|

Play Riff 3 x4   "Leaving scars behind just like razors..."
Play Riff 1 x2

Enjoy!!

            
            
Suggest correction
Creating personal tab
Creating personal tab
You can edit any tab online and save it as your Personal.

You can edit, replace or remove any tab part or add personal notes – all changes will be seen only by you.

Personal tabs can be accessed anytime from any device, even offline.
Learn more »
Give kudos to tab author, rate the tab!
1 2 3 4 5
comments
print report bad tab
1 comment total.
0 reply
kunk76it 10 Jan 13, 2017 05:45 PM

You're the best, thanks for posting!

guest
You may want to rate the tab now too:
select rating
Wanna post a correction for this tab? Suggest correction