Oops, an error
Loading. Please wait.

What A Day bass

version 4
version 4

Whole song

Interactive

577 views 1 this week
no commentswrite comment
1 2 3 4 5
3 more votes to show rating
add to favorites
×
Save as Personal and add changes to this tab that will be seen only by you. Learn more ›
×
You can save this tab as Personal to edit and correct it or add notes. All changes will be seen only by you. Learn more »
launch autoscroll
font size
0
reset
guitar tuner
edit
Autoscroll
slow
fast
+/-
esc
set tempo
stop
Ok, since everyone else seems to be tonedeaf (not to discourage or insult...ok, maybe a
little to insult) as far as Nonpoint goes, allow me to break it down for you

key: h=hammer on
     /=slide upward
     //=slide upward all the way on the neck
     ~=hold out
     R=rest for one whole beat


Intro

Eb --7----7-7h9-------|
Bb ---8----8----------|
F  -----------------5-| 2x (slide up the 2nd time)
C  0-----0------0-7---|


Eb --------------------|
Bb --------------------|
F  --5-----5-5h7---5---| 2x (2nd time repeat the 6 leading into chorus)
C  0--6--0--6----0---6-|


Chorus

Eb ---------------------------------------|
Bb ---------------------------------------|
F  --------3h555-5-5h7--------------------|
C  8-7-00-0-------0----8-7-00-0-3h5555333-|

Eb -----------------------------------|
Bb -----------------------------------|
F  --------3h555-5-5h7----------------|
C  8-7-00-0-------0----8-7-00-0-3h5-3-|

Last measure of chorus

Bb -------------------|
Eb -------------------|
F  --------3333-3h555-|
C  8-7-00-0-----------|

Fill

Eb --------------------|
Bb --------------------|
F  -----5--------------|
C  6-5-0--0-5h666-6555-|


Verse

Eb --7---7-7h9---7-------7---7-7h9--7-----10-----11-11-|
Bb ---8---8-------8-7~----8---8------8-7/9---9/10------|
F  ----------------------------------------------------|
C  0----0------0-------0----0------0-------------------|

Eb --7---7-7h9--7------7---7-7h9--7------|
Bb ---8---8------8-7~---8---8------8-7//-|
F  --------------------------------------|
C  0----0------0------0---0------0-------|

Eb --7---7-7h9--7-----|
Bb ---8---8------8-7~-|
F  -------------------| 2x leading into prechorus
C  0----0------0------|


Prechorus

Eb ------    -------------------------|
Bb ------    -------------------------|
F  --5--- 2x ---5---8~---5------------|
C  0---6~    -0---6----0---6-66666666-|

Chorus
Fill 4x, except at the end

Eb -------------------------------------------------------|RR
Bb -------------------------------------------------------|RR
F  -------------------------------------------------------|RR
C  5h666-6555-5h666-6555-5h666-6555-5h666-6555-5/8888888--|RR

Chorus then the end of the fill ^ as the outro

Any questions, drop a comment

            
            
Suggest correction
Creating personal tab
Creating personal tab
You can edit any tab online and save it as your Personal.

You can edit, replace or remove any tab part or add personal notes – all changes will be seen only by you.

Personal tabs can be accessed anytime from any device, even offline.
Learn more »
Give kudos to tab author, rate the tab!
1 2 3 4 5
comments
print report bad tab
guest
You may want to rate the tab now too:
select rating
Wanna post a correction for this tab? Suggest correction