Oops, an error
Loading. Please wait.

Widowmaker tab

417 views 1 this week
no commentswrite comment
1 2 3 4 5
2 more votes to show rating
add to favorites
×
Save as Personal and add changes to this tab that will be seen only by you. Learn more ›
×
You can save this tab as Personal to edit and correct it or add notes. All changes will be seen only by you. Learn more »
launch autoscroll
font size
0
reset
how to read this tab
guitar tuner
edit
Autoscroll
slow
fast
+/-
esc
set tempo
stop
Nonpoint: Widowmaker

Transcribed by: mysticguitar77

YouTube Channel: MysticGuitar77

Date last modified: October 9, 2014

Tuning: Drop C (C,G,C,F,A,D)

Riff 1 (acoustic, let all notes ring out)
D|-------0------1------0h1p0-------------1-------------3-------|
A|----------3------3---------3-------------1-------------3-----|
F|-----2------2------2---------2-------3-----3-------5-----5---|
C|---0-------------------------------3---------3---5---------5-|
G|-------------------------------0-1-------------3-------------|
C|-0-----------------------------------------------------------|

D|-------0------1------0h1p0-----------------------------------|
A|----------3------3---------3-----------1-------------3-------|
F|-----2------2------2---------2-------3---3---------5---5-----|
C|---0-------------------------------3-------3-----5-------5---|
G|-------------------------------0-1-----------1-3-----------3-|
C|-0-----------------------------------------------------------|

Play above x3

Riff 1 ending (let all notes ring out)
D|---------------------------------------------------------------------|
A|---------------------------------------------------------------------|
F|---------------------------------------------------------------------|
C|-----6h8-----6h8-----6h8-----6h8-----8h10-----8h10-----8h10-----8h10-|
G|---6-------6-------6-------6-------8--------8--------8--------8------|
C|-6-------6-------6-------6-------8--------8--------8--------8--------|

Riff 2 (distortion)
D|-------------1--1-1--------1\-------1-------------3-------|
A|-3-----5-----3--3-3------3------------1-------------3-----|
F|-2-----2-----2--2-2----2----------3-----3-------5-----5---|
C|-0-000-0-000-0--0-0-00----------3---------3---5---------5-|
G|------------------------------1-------------3-------------|
C|----------------------------------------------------------|
     ***   ***

D|-------------1--1-1--------1\------------------------------|
A|-3-----5-----3--3-3------3-----------1-------------3-------|
F|-2-----2-----2--2-2----2-----------3---3---------5---5-----|
C|-0-000-0-000-0--0-0-00-----------3-------3-----5-------5---|
G|-------------------------------1-----------1-3-----------3-|
C|-----------------------------------------------------------|
     ***   ***

Riff 2 (alternate way of playing the beginning chords)
D|------------------------------|
A|-------------6--6-6--------6\-|
F|-7-----9-----7--7-7------7----|
C|-7-----7-----7--7-7----7------|
G|-5-555-5-555-5--5-5-55--------|
C|------------------------------|
     ***   ***

Play Riff 2 x2   "I'm risking everything that I believe..."

Riff 3   "I gotta get this pain to leave me now..."
D|------------------------------------------------------------------------|
A|------------------------------------------------------------------------|
F|------------------------------------------------------------------------|
C|-----6h8-----6h8-----6h8-----6h8-----8h10-----8h10-----8h10-10-10-10h12-|
G|---6-------6-------6-------6-------8--------8--------8------10-10-10----|
C|-6-------6-------6-------6-------8--------8--------8--------10-10-10----|

Riff 4   "Don't invest your heart too much..."
D|-----------------------------------------------------------|
A|-----------------------------------------------------------|
F|-------5-5-5---3~--3-3-5--5-5-------5-5-5---3~--3-3-5------|
C|-0~----5-5-5---3~--3-3-5--5-5-0~----5-5-5---3~--3-3-5--0-0-|
G|-0~----3-3-3-0-1~--1-1-3--3-3-0~----3-3-3-0-1~--1-1-3--0-0-|
C|-0~----------0----------------0~----------0------------0-0-|
                                                         * *

Play Riff 4 x2   "So don't invest your heart too much..."

Fill 1
D|------------|
A|------------|
F|------------|
C|-0~---------|
G|-0~---------|
C|-0~---------|
   *

Play Riff 2 x2   "Seems it's time for me to explain..."
Play Riff 3 x1   "Only thing I know is that you can't win..."
Play Riff 4 x2   "Don't invest your heart too much..."

Riff 5   "Fall, I might not be there for you..."
D|-----------------------------------------------------------------|
A|-----------------------------------------------------------------|
F|-----------------------------------------------------------------|
C|-6-6-6-6-6-6-6-6-6-6-6-6-6-6-6-6-8-8-8-8-8-8-8-8-8-8-8-8-8-8-8-8-|
G|-6-6-6-6-6-6-6-6-6-6-6-6-6-6-6-6-8-8-8-8-8-8-8-8-8-8-8-8-8-8-8-8-|
C|-6-6-6-6-6-6-6-6-6-6-6-6-6-6-6-6-8-8-8-8-8-8-8-8-8-8-8-8-8-8-8-8-|

D|-----------------------------------------------------------------------------|
A|-----------------------------------------------------------------------------|
F|-----------------------------------------------------------------------------|
C|-6-6-6-6-6-6-6-6-6-6-6-6-6-6-6-6-8-8-8-8-8-8-8-8-8-8-8-8-8-8-8-8-10-10-10-10-|
G|-6-6-6-6-6-6-6-6-6-6-6-6-6-6-6-6-8-8-8-8-8-8-8-8-8-8-8-8-8-8-8-8-10-10-10-10-|
C|-6-6-6-6-6-6-6-6-6-6-6-6-6-6-6-6-8-8-8-8-8-8-8-8-8-8-8-8-8-8-8-8-10-10-10-10-|

Play Riff 4 x2   "Don't invest your heart too much..."

Enjoy!!

            
            
Suggest correction
Creating personal tab
Creating personal tab
You can edit any tab online and save it as your Personal.

You can edit, replace or remove any tab part or add personal notes – all changes will be seen only by you.

Personal tabs can be accessed anytime from any device, even offline.
Learn more »
Give kudos to tab author, rate the tab!
1 2 3 4 5
comments
print report bad tab
guest
You may want to rate the tab now too:
select rating
Wanna post a correction for this tab? Suggest correction