Oops, an error
Loading. Please wait.

I Should Have Sent Flowers tab

version 1
version 1

Whole song

Interactive

by Nora
287 views 1 this week
no commentswrite comment
1 2 3 4 5
3 more votes to show rating
add to favorites
×
Save as Personal and add changes to this tab that will be seen only by you. Learn more ›
×
You can save this tab as Personal to edit and correct it or add notes. All changes will be seen only by you. Learn more »
launch autoscroll
font size
0
reset
how to read this tab
guitar tuner
edit
Autoscroll
slow
fast
+/-
esc
set tempo
stop
#----------------------------------PLEASE NOTE---------------------------------#
#This file is the author's own work and represents their interpretation of the #
#song. You may only use this file for private study, scholarship, or research. #
#------------------------------------------------------------------------------#

I SHOULD HAVE SENT FLOWERS
As recorded by Nora
(From the 2003 Album DREAMERS AND DEADMEN)

Transcribed by Jonathan Rose
        

Words and Music by Nora

Gtr I (Db Ab Db Gb Bb Eb) - 'Left Channel'
Gtr II (Db Ab Db Gb Bb Eb) - 'Right Channel'
Gtr III (Db Ab Db Gb Bb Eb) - 'Overdubs'

 Intro
  Hardcore Q=173
  N.C.
 4/4
  Gtrs I, II
  Q.   Q.   Q    +E   Q  E E E Q    Q.   Q.   Q    +E   Q  E E E Q
|--------------|------------------|--------------|------------------|
|--------------|------------------|--------------|------------------|
|--------------|------------------|--------------|------------------|
|--------------|------------------|--------------|------------------|
|--------------|-----/5--5-5-3-0--|--------------|-----/5--5-5-3-0--|
|-0----3----5--|-(5)--------------|-0----3----5--|-(5)--------------|


  Gtr I
  Q.   Q.   Q    +E   Q  E E E Q    Q.   Q.   Q    +E   E E E E E Q
|--------------|------------------|--------------|-----/6-6-6-6-5-3---|
|--------------|------------------|--------------|--------------------|
|--------------|------------------|--------------|--------------------|
|--------------|------------------|--------------|--------------------|
|--------------|-----/5--5-5-3-0--|--------------|--------------------|
|-0----3----5--|-(5)--------------|-0----3----5--|-(5)----------------|
|
| Gtr II
| Q.   Q.   Q    +E   Q  E E E Q    Q.   Q.   Q    +E   Q   E E E Q
|--------------|------------------|--------------|--------------------|
|--------------|------------------|--------------|--------------------|
|--------------|------------------|--------------|--------------------|
|--------------|------------------|--------------|--------------------|
|--------------|-----/5--5-5-3-0--|--------------|-----/5---5-5-3-0---|
|-0----3----5--|-(5)--------------|-0----3----5--|-(5)----------------|


  D5
  PM
  E H..             W               W               W
|-----------------|---------------|---------------|------------------|
|-----------------|---------------|---------------|------------------|
|-----------------|---------------|---------------|------------------|
|-----------------|---------------|---------------|------------------|
|-0---------------|---------------|---------------|------------------|
|-0---------------|---------------|---------------|------------------|
|
|          PM          PM-|                PM
| E E   Q  Q  E E   Q  Q  E E E E   E E Q  Q  E E   E E E E E E E E
|-----------------|---------------|---------------|------------------|
|-----------------|---------------|---------------|------------------|
|-----------------|---------------|---------------|------------------|
|-----------------|---------------|---------------|------------------|
|-3h5---5-----3h5-|-5-------5-5-5-|-3h5-5-----3h5-|------------------|
|----------0------|----0--0-------|--------0------|-7-3-3-3-1-6-6-6--|


  D5                                                 N.C.
  W               +W                +W               E E E E E E E E
|---------------|-----------------|----------------|------------------||
|---------------|-----------------|----------------|------------------||
|---------------|-----------------|----------------|------------------||
|-0-------------|-(0)-------------|-(0)------------|------------------||
|-0-------------|-(0)-------------|-(0)------------|------------------||
|-0-------------|-(0)-------------|-(0)------------|-7-3-3-3-1-6-6-6--||
|
|        PM            PM-|                 PM
| E E Q  Q  E E    Q   Q  E E E E    E E Q  Q  E E   E E E E E E E E
|---------------|-----------------|----------------|------------------||
|---------------|-----------------|----------------|------------------||
|---------------|-----------------|----------------|------------------||
|---------------|-----------------|----------------|------------------||
|-3h5-5-----3h5-|--5--------5-5-5-|--3h5-5-----3h5-|------------------||
|--------0------|------0--0-------|---------0------|-7-3-3-3-1-6-6-6--||


   "I shouldn't have said.."
    N.C.
    Gtrs I, II
           PM          PM-|                PM
    E E Q  Q  E E   Q  Q  E E E E   E E Q  Q  E E   E E E E E E E E  4x
||----------------|---------------|---------------|------------------||
||o---------------|---------------|---------------|-----------------o||
||----------------|---------------|---------------|------------------||
||----------------|---------------|---------------|------------------||
||o-3h5-5-----3h5-|-5-------5-5-5-|-3h5-5-----3h5-|-----------------o||
||---------0------|----0--0-------|--------0------|-7-3-3-3-1-6-6-6--||


   "It's going to be a good.."
    D5                  N.C.            D5                  N.C.
    PM----------------|                 PM----------------|
    E E E E E E E E   E E E E E E E E   E E E E E E E E   E E E E E E E E  3x
||------------------|-----------------|-----------------|------------------||
||o-----------------|-----------------|-----------------|-----------------o||
||------------------|-----------------|-----------------|-----2------------||
||------------------|-----------------|-----------------|---3---3---3p2p0--||
||o-0-0-0-0-0-0-0-0-|-0-----------5---|-0-0-0-0-0-0-0-0-|-0-------3-------o||
||--0-0-0-0-0-0-0-0-|-0-3h6p3---5---5-|-0-0-0-0-0-0-0-0-|-0----------------||


  D5                  N.C.            D5                  N.C.
  Gtr I
  PM----------------|                 PM----------------|
  E E E E E E E E   E E E E E E E E   E E E E E E E E   E H..
|-----------------|-----------------|-----------------|--------------------||
|-----------------|-----------------|-----------------|--------------------||
|-----------------|-----------------|-----------------|--------------------||
|-----------------|-----------------|-----------------|--------------------||
|-0-0-0-0-0-0-0-0-|-0-----------5---|-0-0-0-0-0-0-0-0-|-0------------------||
|-0-0-0-0-0-0-0-0-|-0-3h6p3---5---5-|-0-0-0-0-0-0-0-0-|-0------------------||
|
| Gtr II
| PM----------------|                 PM----------------|
| E E E E E E E E   E E E E E E E E   E E E E E E E E   E E   E E E E E E
|-----------------|-----------------|-----------------|--------------------||
|-----------------|-----------------|-----------------|--------------------||
|-----------------|-----------------|-----------------|-------2------------||
|-----------------|-----------------|-----------------|---3-----3---3p2p0--||
|-0-0-0-0-0-0-0-0-|-0-----------5---|-0-0-0-0-0-0-0-0-|-0---------3--------||
|-0-0-0-0-0-0-0-0-|-0-3h6p3---5---5-|-0-0-0-0-0-0-0-0-|-0------------------||


 "I shouldn't have said.."
  N.C.
  Gtrs I, II
         PM          PM-|                PM
  E E Q  Q  E E   Q  Q  E E E E   E E Q  Q  E E   E E E E E E E E
|---------------|---------------|---------------|------------------|
|---------------|---------------|---------------|------------------|
|---------------|---------------|---------------|------------------|
|---------------|---------------|---------------|------------------|
|-3h5-5-----3h5-|-5-------5-5-5-|-3h5-5-----3h5-|------------------|
|--------0------|----0--0-------|--------0------|-7-3-3-3-1-6-6-6--|


  Gtr I
         PM           PM--|                       PM
  E E Q  Q  E E   Q   Q   E E E      E    E E Q   Q   E E   E E E E E E E E
|---------------|-----------------------|-----------------|------------------|
|---------------|-----------------------|-----------------|------------------|
|---------------|-----------------------|-----------------|------------------|
|---------------|-----------------------|-----------------|------------------|
|-3h5-5-----3h5-|-5---------5-5------5--|-3h5-5-------3h5-|------------------|
|--------0------|-----0---0-------------|---------0-------|-7-3-3-3-1-6-6-6--|
|
| Gtr II
|        PM
| E E Q  Q  E E   E E E E E E E     +E    E E E E E E E E   E E E E E E Q
|---------------|-----------------------|-----------------|------------------|
|---------------|-----------------------|-----------------|------------------|
|---------------|-----------------------|-----------------|------------------|
|---------------|-----3-5-6-5-3b3.5r(3)-|-----------------|---5-5-5-5-3-3----|
|-3h5-5-----3h5-|-5-5-------------------|-5-5-5-5-5-5-3-3-|-3----------------|
|--------0------|-----------------------|-----------------|------------------|


           PM          PM-|                PM
    E E Q  Q  E E   Q  Q  E E E E   E E Q  Q  E E   E E E E E E E E
||----------------|---------------|---------------|------------------||
||o---------------|---------------|---------------|-----------------o||
||----------------|---------------|---------------|------------------||
||----------------|---------------|---------------|------------------||
||o-7h8-8-----7h8-|-8-------8-8-8-|-7h8-8-----7h8-|-----------------o||
||---------0------|----0--0-------|--------0------|-7-3-3-3-1-6-6-6--||
|
|          PM          PM-|                PM
|   E E Q  Q  E E   Q  Q  E E E E   E E Q  Q  E E   E E E E E E E E
||----------------|---------------|---------------|------------------||
||o---------------|---------------|---------------|-----------------o||
||----------------|---------------|---------------|------------------||
||----------------|---------------|---------------|------------------||
||o-3h5-5-----3h5-|-5-------5-5-5-|-3h5-5-----3h5-|-----------------o||
||---------0------|----0--0-------|--------0------|-7-3-3-3-1-6-6-6--||


   "I lost weight and I look.."
    D5                  N.C.            D5                  N.C.
    Gtrs I, II
    PM----------------|                 PM----------------|
    E E E E E E E E   E E E E E E E E   E E E E E E E E   E E E E E E E E  4x
||------------------|-----------------|-----------------|------------------||
||o-----------------|-----------------|-----------------|-----------------o||
||------------------|-----------------|-----------------|-----2------------||
||------------------|-----------------|-----------------|---3---3---3p2p0--||
||o-0-0-0-0-0-0-0-0-|-0-----------5---|-0-0-0-0-0-0-0-0-|-0-------3-------o||
||--0-0-0-0-0-0-0-0-|-0-3h6p3---5---5-|-0-0-0-0-0-0-0-0-|-0----------------||


 "I should've sent flowers.."
  D5
  Gtr I
  W                 +W                  +W                  +W
|-----------------|-------------------|-------------------|--------------------|
|-----------------|-------------------|-------------------|--------------------|
|-----------------|-------------------|-------------------|--------------------|
|-0---------------|-(0)---------------|-(0)---------------|-(0)----------------|
|-0---------------|-(0)---------------|-(0)---------------|-(0)----------------|
|-0---------------|-(0)---------------|-(0)---------------|-(0)----------------|
|
| Gtr II
| PM------------------------------------------------------------------------|
| E E E E E E E E    E  E E E E E E E    E  E E E E E E E    E  E E E E E E E
|-----------------|-------------------|-------------------|--------------------|
|-----------------|-------------------|-------------------|--------------------|
|-----------------|--3--3-3-3-3-3-3-3-|-------------------|--------------------|
|-0-0-0-0-0-0-0-0-|-------------------|--4--4-4-4-4-4-4-4-|--4--4-4-4-4-4-4-4--|
|-----------------|-------------------|-------------------|--------------------|
|-----------------|-------------------|-------------------|--------------------|


  D5
  Gtr I
   PM
   E  H..                W
|---------------------|-------------------|
|---------------------|-------------------|
|---------------------|-------------------|
|---------------------|-------------------|
|--0------------------|-------------------|
|--0------------------|-------------------|
|
| Gtr II
|  PM--------------------------------------
|  E  E   E E E E E E    E  E E E E E E E
|---------------------|-------------------|
|---------------------|-------------------|
|---------------------|--3--3-3-3-3-3-3-3-|
|--0--0---0-0-0-0-0-0-|-------------------|
|---------------------|-------------------|
|---------------------|-------------------|
|
| Gtr III
|  W                     W
|---------------------|-------------------|
|---------------------|-------------------|
|---------------------|-------------------|
|---------------------|-------------------|
|---------------------|-<5>---------------|
|-<5>-----------------|-------------------|


   W                    W
|-------------------|----------------------||
|-------------------|----------------------||
|-------------------|----------------------||
|-------------------|----------------------||
|-------------------|----------------------||
|-------------------|----------------------||
|
|---------------------------------------|
|  E  E E E E E E E     E   E E E E E E E
|-------------------|----------------------||
|-------------------|----------------------||
|-------------------|----------------------||
|--4--4-4-4-4-4-4-4-|---4---4-4-4-4-4-4-4--||
|-------------------|----------------------||
|-------------------|----------------------||
|
|  W                   +W
|-------------------|----------------------||
|-------------------|----------------------||
|-------------------|----------------------||
|-<5>---------------|-(<5>)----------------||
|-------------------|----------------------||
|-------------------|----------------------||


   "Just like this time.."
    (D/F#)            (Bb)              (F#)
    Gtr I
    PM------------------------------------------------------------------|
    E E E E E E E E   E E E E E E E E   E E E E E E E E   E E E E E E E E
||------------------|-----------------|-----------------|------------------||
||o-----------------|-3-3-3-3-3-3-3-3-|-----------------|-----------------o||
||------------------|-----------------|-3-3-3-3-3-3-3-3-|-3-3-3-3-3-3-3-3--||
||--4-4-4-4-4-4-4-4-|-----------------|-----------------|------------------||
||o-----------------|-----------------|-----------------|-----------------o||
||------------------|-----------------|-----------------|------------------||
|
|   Gtr II
|   PM------------------------------------------------------------------|
|   E E E E E E E E   E E E E E E E E   E E E E E E E E   E E E E E E E E
||------------------|-----------------|-----------------|------------------||
||o-----------------|-----------------|-----------------|-----------------o||
||------------------|-3-3-3-3-3-3-3-3-|-----------------|------------------||
||--0-0-0-0-0-0-0-0-|-----------------|-4-4-4-4-4-4-4-4-|-4-4-4-4-4-4-4-4--||
||o-----------------|-----------------|-----------------|-----------------o||
||------------------|-----------------|-----------------|------------------||


  (D/F#)            (Bb)              (F#)
  PM------------------------------------------------------------------|
  E E E E E E E E   E E E E E E E E   E E E E E E E E   E E E E E E E E
|-----------------|-----------------|-----------------|------------------|
|-----------------|-3-3-3-3-3-3-3-3-|-----------------|------------------|
|-----------------|-----------------|-3-3-3-3-3-3-3-3-|-3-3-3-3-3-3-3-3--|
|-4-4-4-4-4-4-4-4-|-----------------|-----------------|------------------|
|-----------------|-----------------|-----------------|------------------|
|-----------------|-----------------|-----------------|------------------|
|
| PM----------------------------------------------------------|
| E E E E E E E E   E E E E E E E E   E E E E E E E E   E E E E E E E E
|-----------------|-----------------|-----------------|------------------|
|-----------------|-----------------|-----------------|------------------|
|-----------------|-3-3-3-3-3-3-3-3-|-----------------|------------------|
|-0-0-0-0-0-0-0-0-|-----------------|-4-4-4-4-4-4-4-4-|-4-4-4-4-4--------|
|-----------------|-----------------|-----------------|-----------5-4----|
|-----------------|-----------------|-----------------|---------------5--|


  (D/F#)            (Bb)              (F#)
                                                    <
  PM------------------------------------------------|
  E E E E E E E E   E E E E E E E E   E E E E E E E E   E E E E E E E E
|-----------------|-----------------|-----------------|------------------|
|-----------------|-3-3-3-3-3-3-3-3-|-----------------|------------------|
|-----------------|-----------------|-3-3-3-3-3-3-3-3-|-3-3-3-3-3-3-3-3--|
|-4-4-4-4-4-4-4-4-|-----------------|-----------------|------------------|
|-----------------|-----------------|-----------------|------------------|
|-----------------|-----------------|-----------------|------------------|
|
|                                                   <
| PM------------------------------------------------|
| E E E E E E E E   E E E E E E E E   E E E E E E E E   E E E E E E E E
|-----------------|-----------------|-----------------|------------------|
|-----------------|-----------------|-----------------|------------------|
|-----------------|-3-3-3-3-3-3-3-3-|-----------------|------------------|
|-0-0-0-0-0-0-0-0-|-----------------|-4-4-4-4-4-4-4-4-|-4-4-4-4-4-4-4-4--|
|-----------------|-----------------|-----------------|------------------|
|-----------------|-----------------|-----------------|------------------|


  D5          Bb5     D5   F#5
                      PM
  H    H      H    Q  Q    W          +W
|-----------|------------|----------|----------------------|
|-----------|------------|----------|----------------------|
|-----------|-3----3-----|----------|----------------------|
|-0----0----|-3----3-----|-4--------|-(4)------------------|
|-0----0----|-1----1--0--|-4--------|-(4)------------------|
|-0----0----|---------0--|-4--------|-(4)------------------|
|
|                     PM
| H    H      H    Q  Q    W           Q.    Q    Q    E
|-----------|------------|----------|--4-------------------|
|-----------|------------|----------|--------7-------------|
|-----------|-3----3-----|----------|-------------6--------|
|-0----0----|-3----3-----|-4--------|-(4)---(4)--(4)---4---|
|-0----0----|-1----1--0--|-4--------|-(4)---(4)--(4)--(4)--|
|-0----0----|---------0--|-4--------|-(4)---(4)--(4)--(4)--|


  D5          Bb5      D5      F#5
                                             <
                               PM------------|
  W           H.       +Q      E E E E E E E E   E E E E E E E E
|-----------|----------------|-----------------|------------------||
|-----------|----------------|-----------------|------------------||
|-----------|-3--------(3)\--|-----------------|------------------||
|-0---------|-3--------(3)\--|-----------------|-4-4-4-4-4-4-4-4--||
|-0---------|-1--------(1)\--|-4-4-4-4-4-4-4-4-|-4-4-4-4-4-4-4-4--||
|-0---------|----------------|-4-4-4-4-4-4-4-4-|-4-4-4-4-4-4-4-4--||
|
|                                            <
|                       PM-------------------|
| H    H      H     Q   Q      E E E E E E E E   E E E E E E E E
|-----------|----------------|-----------------|------------------||
|-----------|----------------|-----------------|------------------||
|-----------|-3-----3--------|-----------------|------------------||
|-0----0----|-3-----3--------|-----------------|-4-4-4-4-4-4-4-4--||
|-0----0----|-1-----1---0----|-4-4-4-4-4-4-4-4-|-4-4-4-4-4-4-4-4--||
|-0----0----|-----------0----|-4-4-4-4-4-4-4-4-|-4-4-4-4-4-4-4-4--||


 Breakdown
  N.C.
                   3/4                 4/4               3/4
  Gtrs I, II
                            ~~~~~~~~~~                            ~~~~~~~~~~
  E E E E E E E E   E E E E E     +E    E E E E E E E E   E E E E E     +E
|-----------------|-------------------|-----------------|-------------------|
|-----------------|-------------------|-----------------|-------------------|
|-----------------|-------------------|-----------------|-------------------|
|---3-----------3-|---3-----3b3.5r(3)-|---3-----------3-|---3---------------|
|---------5---5---|-----5-------------|---------5---5---|-----5-------------|
|-0---3-0---3-----|-0-----6-----------|-0---3-0---3-----|-0-----6-3b3.5r(3)-|


 4/4               3/4                 4/4               2/4
                            ~~~~~~~~~~
  E E E E E E E E   E E E E E     +E    E E E E E E E E   E E E E
|-----------------|-------------------|-----------------|---------||
|-----------------|-------------------|-----------------|---------||
|-----------------|-------------------|-----------------|---------||
|---3-----------3-|---3---------------|-----------------|---------||
|---------5---5---|-----5-------------|-------3---------|-1---1---||
|-0---3-0---3-----|-0-----6-3b3.5r(3)-|-0-3-5---6-5-3-2-|---------||


 Solo
  N.C.
 4/4                       3/4
  Gtr III
                                         ~~~~~~~
   E  E  E  E  E  E  E  E    E  E  E  E  Q
|-------------------------|------------------------|
|-15-------15-------15----|----15-------15---------|
|-------------------------|------------------------|
|----15-15----15-15----15-|-15----15-15------------|
|-------------------------|------------------------|
|-------------------------|------------------------|
|
| Gtrs I, II
|                                        ~~~~~~~~~~
|  E  E  E  E  E  E  E  E    E  E  E  E  E     +E
|-------------------------|------------------------|
|-------------------------|------------------------|
|-------------------------|------------------------|
|-----3-----------------3-|-----3------------------|
|--------------5-----5----|--------5---------------|
|--0-----3--0-----3-------|--0--------6--3b3.5r(3)-|


 4/4                       3/4
   E  E  E  E  E  E  E  E    E  E  E  E  E      E
|-------------------------|-------------------------|
|----15-------15-------15-|-------15----15----------|
|-------------------------|-------------------------|
|-15----15-15----15-15----|-15-15----15--------15---|
|-------------------------|-------------------------|
|-------------------------|-------------------------|
|
|                                        ~~~~~~~~~~
|  E  E  E  E  E  E  E  E    E  E  E  E  E     +E
|-------------------------|-------------------------|
|-------------------------|-------------------------|
|-------------------------|-------------------------|
|-----3-----------------3-|-----3-------------------|
|--------------5-----5----|--------5----------------|
|--0-----3--0-----3-------|--0--------6--3b3.5r(3)--|


 4/4                       3/4
   E  E  E  E  E  E  E  E    E  E  E  E  E      E
|-------------------------|------------------------|
|----15-15-15-15-15-15-15-|-15-15-15-15-15-----15--|
|-----x--x--x--x--x--x--x-|--x--x--x--x--x------x--|
|-15-15-15-15-15-15-15-15-|-15-15-15-15-15-----15--|
|-------------------------|------------------------|
|-------------------------|------------------------|
|
|                                        ~~~~~~~~~~
|  E  E  E  E  E  E  E  E    E  E  E  E  E     +E
|-------------------------|------------------------|
|-------------------------|------------------------|
|-------------------------|------------------------|
|-----3-----------------3-|-----3------------------|
|--------------5-----5----|--------5---------------|
|--0-----3--0-----3-------|--0--------6--3b3.5r(3)-|


 4/4                       2/4
   E  E  E  E  E  E  E  E    E  E  E  E
|-------------------------|-------------||
|-15-15-15-15-15-15-15-15-|-15-15-15-15-||
|--x--x--x--x--x--x--x--x-|--x--x--x--x-||
|-15-15-15-15-15-15-15-15-|-15-15-15-15-||
|-------------------------|-------------||
|-------------------------|-------------||
|
|  E  E  E  E  E  E  E  E    E  E  E  E
|-------------------------|-------------||
|-------------------------|-------------||
|-------------------------|-------------||
|-------------------------|-------------||
|-----------3-------------|--1-----1----||
|--0--3--5-----6--5--3--2-|-------------||


 "I was the best friend.."
  N.C.
 4/4                       3/4
   E  +H..                   +H         +E      +E
|-------------------------|--------------------------|
|-------------------------|--------------------------|
|-13-(13)b14==============|=(13)-------(13)r---(13)\-|
|-------------------------|--------------------------|
|-------------------------|--------------------------|
|-------------------------|--------------------------|
|
|                                        ~~~~~~~~~~~~
|  E   E      E E E E E E     E  E E E   E      +E
|-------------------------|--------------------------|
|-------------------------|--------------------------|
|-------------------------|--------------------------|
|------3----------------3-|------3-------------------|
|-----------------5---5---|--------5-----------------|
|--0----------3-0---3-----|---0------6---3b3.5r=(3)--|


 4/4                   3/4
   E  H..                +H.
|---------------------|-----------------------|
|---------------------|-----------------------|
|---------------------|-----------------------|
|-11s12---------------|-(12)------------------|
|---------------------|-----------------------|
|---------------------|-----------------------|
|
|                                  ~~~~~~~~~~
|  E  E   E E E E E E     E  E E E E     +E
|---------------------|-----------------------|
|---------------------|-----------------------|
|---------------------|-----------------------|
|-----3-------------3-|------3----------------|
|-------------5---5---|--------5--------------|
|--0------3-0---3-----|---0------6-3b3.5r(3)--|


 4/4                  3/4                    4/4                  2/4
    >
   +W                   +H.                    +W                   +H
|--------------------|----------------------|--------------------|------------||
|--------------------|----------------------|--------------------|------------||
|--------------------|----------------------|--------------------|------------||
|-(12)---------------|-(12)-----------------|-(12)---------------|-(12)-------||
|--------------------|----------------------|--------------------|------------||
|--------------------|----------------------|--------------------|------------||
|
|                                 ~~~~~~~~~~
|   E  E E E E E E E     E  E E E E     +E      E  E E E E E E E     E  E E E
|--------------------|----------------------|--------------------|------------||
|--------------------|----------------------|--------------------|------------||
|--------------------|----------------------|--------------------|------------||
|------3-----------3-|------3---------------|--------------------|------------||
|------------5---5---|--------5-------------|----------3---------|---1----1---||
|---0----3-0---3-----|---0------6-3b3.5r(3)-|---0--3-5---6-5-3-2-|------------||


 "If you're gonna burn it.."
  N.C.         Eb5  Bb5Eb5 F5
 4/4
  Gtrs I, II
                  PM   PM
  Wx7          Q  E Q  E E E
|------------|---------------|
|------------|---------------|
|------------|------3--------|
|------------|-1----3----1S3-|
|------------|-1--1-1--1-1S3-|
|------------|-1--1----1-1S3-|


    D5AbG5F5D5F5  D5      AbG5F5D5F5D5      AbG5F5D5F5D5    Eb5   Bb5Eb5 F5
                                    PM|               PM|       PM   PM
    E E E E E E E E   +E  E E E E E E E   E E E E E E E E   E E E Q  E E E
||------------------|-------------------|-----------------|-----------------||
||o-----------------|-------------------|-----------------|----------------o||
||------------------|-------------------|-----------------|-------3---------||
||--0-6-5-3-0-3---0-|-(0)-6-5-3-0-3-----|-0-6-5-3-0-3-----|-1-1---3----1S3--||
||o-0-6-5-3-0-3---0-|-(0)-6-5-3-0-3-0-0-|-0-6-5-3-0-3-0-0-|-1-1-1-1--1-1S3-o||
||--0-6-5-3-0-3---0-|-(0)-6-5-3-0-3-0-0-|-0-6-5-3-0-3-0-0-|-1-1-1----1-1S3--||


   "What was I thinking.."
    D5AbG5F5D5F5  D5      AbG5F5D5F5D5      AbG5F5D5F5D5    Eb5   Bb5Eb5 F5
                                    PM|               PM|       PM   PM
    E E E E E E E E   +E  E E E E E E E   E E E E E E E E   E E E Q  E E E
||------------------|-------------------|-----------------|-----------------||
||o-----------------|-------------------|-----------------|----------------o||
||------------------|-------------------|-----------------|-------3---------||
||--0-6-5-3-0-3---0-|-(0)-6-5-3-0-3-----|-0-6-5-3-0-3-----|-1-1---3----1S3--||
||o-0-6-5-3-0-3---0-|-(0)-6-5-3-0-3-0-0-|-0-6-5-3-0-3-0-0-|-1-1-1-1--1-1S3-o||
||--0-6-5-3-0-3---0-|-(0)-6-5-3-0-3-0-0-|-0-6-5-3-0-3-0-0-|-1-1-1----1-1S3--||


   "I haven't been sleeping.."
    N.C.
    Gtrs I, II
           PM          PM-|                PM
    E E Q  Q  E E   Q  Q  E E E E   E E Q  Q  E E   E E E E E E E E
||----------------|---------------|---------------|------------------||
||o---------------|---------------|---------------|-----------------o||
||----------------|---------------|---------------|------------------||
||----------------|---------------|---------------|------------------||
||o-3h5-5-----3h5-|-5-------5-5-5-|-3h5-5-----3h5-|-----------------o||
||---------0------|----0--0-------|--------0------|-7-3-3-3-1-6-6-6--||


  Gtr I
         PM          PM-|                PM
  E E Q  Q  E E   Q  Q  E E E E   E E Q  Q  E E   E E E E E E E E
|---------------|---------------|---------------|------------------|
|---------------|---------------|---------------|------------------|
|---------------|---------------|---------------|------------------|
|---------------|---------------|---------------|------------------|
|-7h8-8-----7h8-|-8-------8-8-8-|-7h8-8-----7h8-|------------------|
|--------0------|----0--0-------|--------0------|-7-3-3-3-1-6-6-6--|
|
| Gtr II
|        PM          PM-|                PM
| E E Q  Q  E E   Q  Q  E E E E   E E Q  Q  E E   E E E E E E E E
|---------------|---------------|---------------|------------------|
|---------------|---------------|---------------|------------------|
|---------------|---------------|---------------|------------------|
|---------------|---------------|---------------|------------------|
|-3h5-5-----3h5-|-5-------5-5-5-|-3h5-5-----3h5-|------------------|
|--------0------|----0--0-------|--------0------|-7-3-3-3-1-6-6-6--|


                                                    F5      Ab5
         PM          PM-|                PM
  E E Q  Q  E E   Q  Q  E E E E   E E Q  Q  E E   E E E E E E E E
|---------------|---------------|---------------|------------------*|
|---------------|---------------|---------------|------------------*|
|---------------|---------------|---------------|------------------*|
|---------------|---------------|---------------|-x-3-3-3-x-6-6-6--*|
|-7h8-8-----7h8-|-8-------8-8-8-|-7h8-8-----7h8-|-x-3-3-3-x-6-6-6--*|
|--------0------|----0--0-------|--------0------|-x-3-3-3-x-6-6-6--*|
|
|        PM          PM-|                PM
| E E Q  Q  E E   Q  Q  E E E E   E E Q  Q  E E   E E E E E E E E
|---------------|---------------|---------------|------------------*|
|---------------|---------------|---------------|------------------*|
|---------------|---------------|---------------|------------------*|
|---------------|---------------|---------------|-x-3-3-3-x-6-6-6--*|
|-3h5-5-----3h5-|-5-------5-5-5-|-3h5-5-----3h5-|-x-3-3-3-x-6-6-6--*|
|--------0------|----0--0-------|--------0------|-x-3-3-3-x-6-6-6--*|



Duration Legend
---------------
W - whole; H - half; Q - quarter; E - 8th; S - 16th; T - 32nd; X - 64th; a - acciaccatura
+ - note tied to previous; . - note dotted; .. - note double dotted
Uncapitalized letters represent notes that are staccato (1/2 duration)
Irregular groupings are notated above the duration line
Duration letters will always appear directly above the note/fret number it represents the
duration for.  Duration letters with no fret number below them represent rests.  Multi-
bar rests are notated in the form Wxn, where n is the number of bars to rest for.  Low
melody durations appear below the staff

Tablature Legend
----------------
 h   - hammer-on
 p   - pull-off
 b   - bend
 pb  - pre-bend
 r   - bend release (if no number after the r, then release immediately)
 /\  - slide into or out of (from/to "nowhere")
 s   - legato slide
 S   - shift slide
 - natural harmonic
[n]  - artificial harmonic
n(n) - tapped harmonic
 ~   - vibrato
 tr  - trill
 T   - tap
 TP  - trem. picking
 PM  - palm muting
\n/  - tremolo bar dip; n = amount to dip
 \n  - tremolo bar down
 n/  - tremolo bar up
/n\  - tremolo bar inverted dip
 =   - hold bend; also acts as connecting device for hammers/pulls
 <> - volume swell (louder/softer)
 x   - on rhythm slash represents muted slash
 o   - on rhythm slash represents single note slash

Misc Legend
-----------
 |  - bar
||  - double bar
||o - repeat start
o|| - repeat end
*|  - double bar (ending)
 :  - bar (freetime)
 $  - Segno
 &  - Coda
Tempo markers -  = BPM(8/16=s8/s16), where s8 = swing 8ths, s16 = swing 16ths


** Generated using Power Tab Editor by Brad Larsen: The Official Power Tab Web Site

            
            
Suggest correction
Creating personal tab
Creating personal tab
You can edit any tab online and save it as your Personal.

You can edit, replace or remove any tab part or add personal notes – all changes will be seen only by you.

Personal tabs can be accessed anytime from any device, even offline.
Learn more »
Give kudos to tab author, rate the tab!
1 2 3 4 5
comments
print report bad tab
guest
You may want to rate the tab now too:
select rating
Wanna post a correction for this tab? Suggest correction