Oops, an error
Loading. Please wait.

Cold Cold Heart bass

version 1
version 1

Whole song

Interactive

8,192 views 9 this week
no commentswrite comment
1 2 3 4 5
x 4
add to favorites
×
Save as Personal and add changes to this tab that will be seen only by you. Learn more ›
×
You can save this tab as Personal to edit and correct it or add notes. All changes will be seen only by you. Learn more »
launch autoscroll
font size
0
reset
guitar tuner
edit
Autoscroll
slow
fast
+/-
esc
set tempo
stop
Author
Difficulty
Hallo, my name is Vladimir, Im from Serbia.
So this is a first tab of this song, and I wanted to post a cords tab, but
when I tried to play chords (it seems so easy, only 3 chords) I couldnt catch
them!? They should be A, E and D, but they doesnt sound good in major, and
doesnt sound good in minor.... So heres bass tab.
Ill post and lyrics.





                Norah Jones - Cold Cold Heart
               (album: Come Away With Me, 2002)





(Intro bass and following A):


G|------0----0---0----0---0----0---0--2-0-----|
D|---------2-------0-2-------2---------2------|
A|---0--------0--------0--------0--------0----|
E|--------------------------------------------|

or:

G|--------------------------------------------|
D|------5----7---5----5---5----5---5--7-5-----|
A|---0-----7--0----5-7-0-----7--0------7-0----|
E|--------------------------------------------|

I've tried so hard my dear to show
That you're my every dream



(Then when turning to bass E):

G|--------------------------------------------|
D|------0--2-----0--2-0---0--2-----0--2-0-----|
A|----------2--------2--------2--------2------|
E|---0--------0--------0--------0--------0----|

or:

G|--------------------------------------------|
D|--------------------------------------------|
A|------5--7-----5--7-5---0--7-----5--7-5-----|
E|---0------7-0------7-0------7-0------7-0----|

Yet you're afraid each thing I do
Is just some evil scheme 


A memory from your lonesome past 
Keeps us so far apart


(Turning from bass D to E):

G|----------------|
D|---0----0-------|
A|------2--0------|
E|-----------0----|

or:

G|----------------|
D|----------------|
A|---5----5-------|
E|------7--5-0----|


Why can't I free your doubtful mind
And melt your cold cold heart



(Before another verse):

G|-------------------|
D|-------2-----------|
A|---2/4---4\2--0----|
E|-------------------|

or:

G|-------------------|
D|-------------------|
A|-------7-----------|
E|---7/9---9\7--5----|


Another love before my time 
Made your heart sad an' blue 
And so my heart is paying now
For things I didn't do 



(When she will say "That make the teardrops start", turning A-D-E):

G|---------------------------------|
D|------------0--2--4-0----0-------|
A|---0--2--4-------------2--0------|
E|----------------------------0----|

or:

G|---------------------------------|
D|------------------4--------------|
A|---------4--5--7----5----5-------|
E|---5--7----------------7--5-0----|

In anger unkind words are said
That make the teardrops start 
Why can't I free your doubtful mind
And melt your cold cold heart


piano


There was a time when I believed
That you belonged to me 
But now I know your heart is shackled
To a memory 


The more I learn to care for you 
The more we drift apart 
Why can't I free your doubtful mind 
And melt your cold cold heart


(Ending bass, all the time):       (but sometimes):

G|--------------|                  G|----------2--------|
D|---0----0-----|                  D|---0--2/4---4\2----|
A|------2--0----|                  A|-------------------|
E|--------------|                  E|-------------------|

or:

G|--------------|                  G|-------------------|
D|--------------|                  D|----------7--------|
A|---5----5-----|                  A|---5--7/9---9\7----|
E|------7--5----|                  E|-------------------|



 /  slide up
 \  slide down


Any comments post me at tordajav@yahoo.com

            
            
Suggest correction
Creating personal tab
Creating personal tab
You can edit any tab online and save it as your Personal.

You can edit, replace or remove any tab part or add personal notes – all changes will be seen only by you.

Personal tabs can be accessed anytime from any device, even offline.
Learn more »
comments
print report bad tab
guest
You may want to rate the tab now too:
select rating
Wanna post a correction for this tab? Suggest correction