Oops, an error
Loading. Please wait.

Memphis Will Be Laid To Waste tab

version 2
version 2

Whole song

3,536 views 1 this week
1 commentread comment
1 2 3 4 5
3 more votes to show rating
add to favorites
×
Save as Personal and add changes to this tab that will be seen only by you. Learn more ›
×
You can save this tab as Personal to edit and correct it or add notes. All changes will be seen only by you. Learn more »
launch autoscroll
font size
0
reset
how to read this tab
guitar tuner
edit
Autoscroll
slow
fast
+/-
esc
set tempo
stop
I was too lazy too tune my guitar to C# flat so here it is in easy Drop D

Riff 1


|-----------------|
|-----------------|
|-----------------|
|-5-5-5-5-5-5-5-5-|
|-5-5-5-5-5-5-5-5-|
|-5-5-5-5-5-5-5-5-|


Riff 2

|-----------------------|
|-------3-33333-3333333-|
|-------6-66666-6666666-|
|--000------------------|
|--000------------------|
|--000------------------|
pm ...    .....


Riff 3

|-------------------------------------------------------|
|-------------------------------------------------------|
|-------------------------------------------------------|
|-------------------------------------------------------|
|----0----0----0----0----0------0----0-------0----0---0-|
|-33---33---33---33---33---3-22---22---2-0-0---00---0---| 


Riff 4

|-----------------------------|
|-6-6-6-6-6~-6-6-6-6-6~-6~----|
|-3-3-3-3-3~-3-3-3-3-3~----3~-|
|-3-3-3-3-3~-3-3-3-3-3~-------|
|---------0~---------0~-------|
|---------0~---------0~-------|

Riff 5

|------------------------------------------------------------|
|------------------------------------------------------------|
|--00000------00000-0-0-0--0-0-0—-00000------00000-----0-0-0-|
|--00000------00000-0-0-0--0-0-0—-00000------00000-----0-0-0-|
|--00000------00000-0-0-0--0-0-0--00000------00000-----0-0-0-|x2
pm .....      ..... . . .  . . .  .....      .....     . . .

Riff 6

|-------|
|-------|
|-------|
|-6~-2~-|
|-6~-2~-|
|-6~-2~-|

Riff 7

|-------------------|
|-----------2-2-2-2-|
|-----------5-5-5-5-|
|--0-0-0-0----------|
|--0-0-0-0----------|
|--0-0-0-0----------|x4
pm . . . .

Riff 8

|-----------------------|
|-----------------------|
|-----------------------|
|--0000000~--0-0~--0-0~-|
|--0000000~--0-0~--0-0~-|
|--0000000~--0-0~--0-0~-|x3
pm .......   . .   . .

holding the notes. And continue to play it

Riff 9

|-----------------------|
|-----------------------|
|-----------------------|
|--0000000---0-0---0-0--|
|--0000000---0-0---0-0--|
|--0000000---0-0---0-0--|x12
pm .......   . .   . .


|----------------------------|
|----------------------------|
|--8~--9~--8~-----8~--9~--8~-|
|--x~--x~--x~-----x~--x~--x~-|
|--7~--7~--6~-----6~--7~--6~-|
|----------------------------|

Riff 10

|-----|
|-----|
|-----|
|--7~-|
|--7~-|
|--7~-|x4


|-------------|    |-------------|
|-------------|    |-------------|
|-------------|    |-------------|
|-------------|    |-0h1/77-7777-|
|-------------|    |-0h1-77-7777-|
|-0h1/77-7777-|x4  |-0h1/77-7777-|x4


Outro

|--------------------|
|--------------------|
|--------------------|
|-9--9-—-9--9--9--9--|
|-7—-7---7—-7—-7—-7-|
|-7—-7---7—-7—-7—-7-|

Guitar 2

|----------------------------------------------|
|----------------------------------------------|
|--9--9-9-9-9---8—-9-9-999/10-10-10--10--10--10-|
|--x--x--x-x-x--x—--x--x--x-x-x/-x--x--x-x-x-x-|
|--7--7--7-7-7--7—--7--7--7-7-7/-8--8--8-8-8-8-|
|----------------------------------------------|

both guitars end on 

|----|
|----|
|----|
|-5~-|
|-3~-|
|-3~-|


            
            
Suggest correction
Creating personal tab
Creating personal tab
You can edit any tab online and save it as your Personal.

You can edit, replace or remove any tab part or add personal notes – all changes will be seen only by you.

Personal tabs can be accessed anytime from any device, even offline.
Learn more »
Give kudos to tab author, rate the tab!
1 2 3 4 5
comments
print report bad tab
1 comment total.
0 reply
brutalp 10 Jul 13, 2016 10:53 PM

Umm, why didn't you just add +1 to all of the numbers and put it in here like it's drop C#?

guest
You may want to rate the tab now too:
select rating
Wanna post a correction for this tab? Suggest correction