Oops, an error
Loading. Please wait.

Mi Amigo El Negro tab

by Nose
813 views 1 this week
no commentswrite comment
1 2 3 4 5
3 more votes to show rating
add to favorites
×
Save as Personal and add changes to this tab that will be seen only by you. Learn more ›
×
You can save this tab as Personal to edit and correct it or add notes. All changes will be seen only by you. Learn more »
launch autoscroll
font size
0
reset
how to read this tab
guitar tuner
edit
Autoscroll
slow
fast
+/-
esc
set tempo
stop
intro:
segunda guitarra:
       DO5     -   SOL5   -        FA5
e--3-3--xx--3-3-3-3-x-3-3--1-1-xx-1-1-1-1-1-1-1-1-
b--3-3--xx--3-3-3-3-x-3-3--1-1-xx-1-1-1-1-1-1-1-1-
g--5-5--xx--5-3-3-3-x-3-3--1-1-xx-1-1-1-1-1-1-1-1-   [x4]
d--5-5--xx--5-5-5-5-x-5-5--3-3-xx-3-3-3-3-3-3-3-3-
a--3-3--xx--3-5-5-5-x-5-5--3-3-xx-3-3-3-3-3-3-3-3-
E--3-3--xx--3-3-3-3-x-3-3--1-1-xx-1-1-1-1-1-1-1-1-
primera guitarra:

e----10-8---8---10-8----10-8---8---12-13--
b--8^-----8---8-------8^-----8---8--------
g-----------------------------------------
d-----------------------------------------
a-----------------------------------------
E-----------------------------------------

e-8---10---12-10-8-10--8---10---12-10-8-10-
b--8-8--8-8--8--8-8-----8-8--8-8--8--8-8---
g------------------------------------------
d------------------------------------------
a------------------------------------------
E------------------------------------------

e----10-8---8---10-8----10-8---8---12-13---8-8-8-8-8-8-8-8-1010101010101010--
b--8^-----8---8-------8^-----8---8---------8-8-8-8-8-8-8-8-8-8-8-8-8-8-8-8---
g----------------------------------------------------------------------------
d----------------------------------------------------------------------------
a----------------------------------------------------------------------------
E----------------------------------------------------------------------------


DO5      SOL5      FA5
 estamos todos celebrando
DO5       SOL5         FA5
 cuando aparece el negro, entre medio de la fiesta
DO5      SOL5          FA5
 y todos lo quedamos mirando
DO5      SOL5          FA5
 cuando bajo su pantalon

                     LA5  SOL5  FA5
¡saco el medio pichulon!
LA5  SOL5  FA5
 pichulon

DO5      SOL5          FA5
 estamos todos en el auto
DO5      SOL5          FA5
 el negro estaba con su mina, y se empezaron a tocar
DO5      SOL5          FA5
 el negro se descontrolo
DO5      SOL5          FA5
 cuando bajo su pantalon


                     LA5  SOL5  FA5
¡saco el medio pichulon!
LA5  SOL5  FA5
 pichulon
LA5  SOL5  FA5
 pichulon
LA5  SOL5  FA5
 pichulon

solo/final:

segunda guitarra:
       DO5     -   SOL5   -        FA5
e--3-3--xx--3-3-3-3-x-3-3--1-1-xx-1-1-1-1-1-1-1-1-     -3---
b--3-3--xx--3-3-3-3-x-3-3--1-1-xx-1-1-1-1-1-1-1-1-     -3---
g--5-5--xx--5-3-3-3-x-3-3--1-1-xx-1-1-1-1-1-1-1-1- (x4)-5---
d--5-5--xx--5-5-5-5-x-5-5--3-3-xx-3-3-3-3-3-3-3-3-     -5---
a--3-3--xx--3-5-5-5-x-5-5--3-3-xx-3-3-3-3-3-3-3-3-     -3---
E--3-3--xx--3-3-3-3-x-3-3--1-1-xx-1-1-1-1-1-1-1-1-     -3---

primera guitarra:

e----10-8---8---10-8----10-8---8---12-13--
b--8^-----8---8-------8^-----8---8--------
g-----------------------------------------
d-----------------------------------------
a-----------------------------------------
E-----------------------------------------

e-8---10---12-10-8-10--8---10---12-10-8-10-
b--8-8--8-8--8--8-8-----8-8--8-8--8--8-8---
g------------------------------------------
d------------------------------------------
a------------------------------------------
E------------------------------------------

e--12-10-8-12-10-8-12-10-8-12-10-8-12-10-8-12-10-8-12-10-8-12-10-----
b----------------------------------------------------------------8^--
g--------------------------------------------------------------------
d--------------------------------------------------------------------
a--------------------------------------------------------------------
E--------------------------------------------------------------------

e-----------------------------------12-10-8-13-10-8-12-10-8-13-10-8
b------------------------------------------------------------------
g--------------------------4-4-5-5---------------------------------
d--------------3-3-5-5-7-7-----------------------------------------
a--3-3-5-5-7-7-----------------------------------------------------
E------------------------------------------------------------------

e-12-10-8-13-10-8-12-10-8-13-10-8-8--------------------------------
b---------------------------------8--------------------------------
g------------------------------------------------------------------
d------------------------------------------------------------------
a------------------------------------------------------------------
E------------------------------------------------------------------

            
            
Suggest correction
Creating personal tab
Creating personal tab
You can edit any tab online and save it as your Personal.

You can edit, replace or remove any tab part or add personal notes – all changes will be seen only by you.

Personal tabs can be accessed anytime from any device, even offline.
Learn more »
Give kudos to tab author, rate the tab!
1 2 3 4 5
comments
print report bad tab
guest
Wanna post a correction for this tab? Suggest correction