Oops, an error
Loading. Please wait.

Chloroform tab

by Nothing
2,059 views 9 this week
1 commentread comment
1 2 3 4 5
x 4
add to favorites
×
Save as Personal and add changes to this tab that will be seen only by you. Learn more ›
×
You can save this tab as Personal to edit and correct it or add notes. All changes will be seen only by you. Learn more »
launch autoscroll
font size
0
reset
how to read this tab
guitar tuner
edit
Autoscroll
slow
fast
+/-
esc
set tempo
stop
Nothing Suck, Whirr Rule

[Intro]

(Guitar 1)

e|---------------------------------------------------------------------------|
B|---------------------------------------------------------------------------|
G|--------6---6b-------------------------------------------------------------|
D|----7-7---7----------------------------------------------------------------|
A|---------------------------------------------------------------------------|
E|---------------------------------------------------------------------------|

e|-----------------------------|----------------------------------------------|
B|---------------9-----9---9---|----------------------------------------------|
G|----6------6-9---9-----9---9-|--7--6h7p6h7-6--------------------------------|
D|-------7-9-------------------|---------------9-7h9p7--------7-9-------------|
A|-----------------------------|-----------------------9--7-9-----------------|
E|-----------------------------|----------------------------------------------|

(Guitar 2)

e|------------|---------------------------------------------------------------|
B|------------|---------------------------------------------------------------|
G|------------|---------------------------------------------------------------|
D|----7----7--|--9----12------------------------------------------------------|
A|----7----7--|--9----12------------------------------------------------------|
E|----5----5--|--7----10------------------------------------------------------|



[Verse]

e|---------|----------|-------|-------------------------------------------------|
B|---------|----------|-------|-------------------------------------------------|
G|---------|--6-------|-------|-------------------------------------------------|
D|----7----|-(7)-6----|--4----|--7----------------------------------------------|
A|----7----|--7--7----|--2----|--5----------------------------------------------|
E|----5----|--5--5----|--2----|--5----------------------------------------------|


[Chorus]

e|-------|--------|-------------|-------|-------|-------------------------------------|
B|-------|--------|-------------|-------|-------|-------------------------------------|
G|-------|--------|-------------|-------|-------|------6---6b-------------------------|
D|--6----|--6--4--|--7----------|--6----|--4----|--7-7---7----------------------------|
A|--4----|--4--2--|--7----------|--4----|--2----|-------------------------------------|
E|--4----|--4--2--|--5----------|--4----|--2----|-------------------------------------|


[Outro]

e|-----|-----|-----|-----|----------------------------------------------------------------------|
B|-----|-----|-----|-----|----------------------------------------------------------------------|
G|-----|-----|-----|-----|----------------------------------------------------------------------|
D|--7--|--7--|--7--|--7--|--6b------------------------------------------------------------------|
A|--7--|--7--|--7--|--7--|----------------------------------------------------------------------|
E|--5--|--5--|--5--|--5--|----------------------------------------------------------------------|


*Verse again, finish on F# chord then harmonics on 7th fret of the A string


[Solo] 

(over verse chords)

e|----------------|-----------------------------------------------------------|
B|----------------|-----------------------------------------------------------|
G|----7--6--8-----|-----------------------6-----------------------------------|
D|-------------9--|--9b--7--7-7h9p7---7-9-------------------------------------|
A|----------------|-----------------------------------------------------------|
E|----------------|-----------------------------------------------------------|

e|----------------|-----------------------------------------------------------|
B|----------------|-----------------------------------------------------------|
G|----7--6--8-----|-----------------------------6-7-6-------------------------|
D|-------------9--|--9b--7--7-7h9p7---------7-9-------------------------------|
A|----------------|-----------------9---7-9-----------------------------------|
E|----------------|-----------------------------------------------------------|


***********************************
| h   Hummer-on
| p   Pull-off
| b   Bend
|(n)  Ghost note
***********************************

            
            
Suggest correction
Creating personal tab
Creating personal tab
You can edit any tab online and save it as your Personal.

You can edit, replace or remove any tab part or add personal notes – all changes will be seen only by you.

Personal tabs can be accessed anytime from any device, even offline.
Learn more »
comments
print report bad tab
1 comment total.
+1 reply
al_r_x 10 May 19, 2016 01:35 PM

dude pls tab get well i cant find it anywhere, great tab btw,

guest
You may want to rate the tab now too:
select rating
Wanna post a correction for this tab? Suggest correction