Oops, an error
Loading. Please wait.

If I Get High tab

version 3
version 3

Whole song

  • 'If I Get High' featuring Tab for the riff used throughout.
3,241 views 69 this week
3 commentsread comments
1 2 3 4 5
x 8
add to favorites
×
Save as Personal and add changes to this tab that will be seen only by you. Learn more ›
×
You can save this tab as Personal to edit and correct it or add notes. All changes will be seen only by you. Learn more »
launch autoscroll
font size
0
reset
how to read this tab
guitar tuner
edit
Autoscroll
slow
fast
+/-
esc
set tempo
stop
About this tab version
'If I Get High' featuring Tab for the riff used throughout. Was this info helpful? Yes No
[Intro]

e|-----------------------------|----------------------------------------------|
B|-----------------------------|----------------------------------------------|
G|-----------------------------|----------------------------------------------|
D|-----13-13-13-13-13---9-9-9--|---13-13-13-13-13---9-9-9---------------------|
A|-----11-11-11-11-11---7-7-6--|---11-11-11-11-11---7-7-6---------------------|
E|--0--------------------------|-0--------------------------------------------|
    
E|-----------------------------|----------------------------------------------|
B|-----------------------------|----------------------------------------------|
G|-----13-13-13-13-13---9-9-9--|---13-13-13-13-13---9-9-9---------------------|
D|-----11-11-11-11-11---7-7-6--|---11-11-11-11-11---7-7-6---------------------|
A|--0--------------------------|-0--------------------------------------------|
E|-----------------------------|----------------------------------------------|


[Verse]
e|-----------------------------|----------------------------------------------|
B|-----------------------------|----------------------------------------------|
G|-----------------------------|----------------------------------------------|
D|-----13-13-13-13-13---9-9-9--|---13-13-13-13-13---9-9-9---------------------|
A|-----11-11-11-11-11---7-7-6--|---11-11-11-11-11---7-7-6---------------------|
E|--0--------------------------|-0--------------------------------------------|
    
E|-----------------------------|----------------------------------------------|
B|-----------------------------|----------------------------------------------|
G|-----13-13-13-13-13---9-9-9--|---13-13-13-13-13---9-9-9---------------------|
D|-----11-11-11-11-11---7-7-6--|---11-11-11-11-11---7-7-6---------------------|
A|--0--------------------------|-0--------------------------------------------|
E|-----------------------------|----------------------------------------------|

I'll meet you at the divide,
To break the spell,
A point where two worlds collide,
Yeah, we'll rebel,

And we run,
Until we break through



[Chorus]
If I get high...enough..If I get high enough- Will I see you again
e|--0------------0--------0---------------------------------------------------|
B|--4------------0--------2---------------------------------------------------|
G|--4------------9--------1---------------------------------------------------|
D|--4------------9--------2---------------------------------------------------|
A|--2------------7--------0---------------------------------------------------|
E|---------------0------------------------------------------------------------|


[Verse 2]
e|-----------------------------|----------------------------------------------|
B|-----------------------------|----------------------------------------------|
G|-----------------------------|----------------------------------------------|
D|-----13-13-13-13-13---9-9-9--|---13-13-13-13-13---9-9-9---------------------|
A|-----11-11-11-11-11---7-7-6--|---11-11-11-11-11---7-7-6---------------------|
E|--0--------------------------|-0--------------------------------------------|
    
E|-----------------------------|----------------------------------------------|
B|-----------------------------|----------------------------------------------|
G|-----13-13-13-13-13---9-9-9--|---13-13-13-13-13---9-9-9---------------------|
D|-----11-11-11-11-11---7-7-6--|---11-11-11-11-11---7-7-6---------------------|
A|--0--------------------------|-0--------------------------------------------|
E|-----------------------------|----------------------------------------------|
I fill my lungs every night,
Not long to wait,
And if I do this thing right,
I dream of our escape,

And we run,
Until we break through

[Chorus]
e|--------------0--------0---------------------------------------------------|
B|--------------9--------2---------------------------------------------------|
G|--------------8--------1---------------------------------------------------|
D|--------------9--------2---------------------------------------------------|
A|--------------7--------0---------------------------------------------------|
E|--------------0------------------------------------------------------------|

EMaj7
If I get high
AMaj7
If I get high

            
            
Suggest correction
Creating personal tab
Creating personal tab
You can edit any tab online and save it as your Personal.

You can edit, replace or remove any tab part or add personal notes – all changes will be seen only by you.

Personal tabs can be accessed anytime from any device, even offline.
Learn more »
comments
print report bad tab
3 comments total.
0 reply
james393939 36 May 03, 2017 07:25 PM

There is two guitars in this song. Listen to it in headphones and u should add the other not too hard to figure out.

0 reply
james393939 36 May 03, 2017 07:25 PM

And the main guitar you have tabbed out here doesn't go to the 6 9 part, you hear that because of the other guitar.

+1 reply
izboguitartabs 103 May 07, 2017 03:32 PM

Hi James, thanks for the correction. When I've performed this live, I've had to adapt it to fit just one guitar and had thus worked it out as tabbed above. I'll add another tab to closer represent the song itself though, and feature both guitars- thanks again :)

guest
You may want to rate the tab now too:
select rating
Wanna post a correction for this tab? Suggest correction