Oops, an error
Loading. Please wait.

Just Say When tab

1,591 views 87 this week
1 commentread comment
1 2 3 4 5
x 5
add to favorites
×
Save as Personal and add changes to this tab that will be seen only by you. Learn more ›
×
You can save this tab as Personal to edit and correct it or add notes. All changes will be seen only by you. Learn more »
launch autoscroll
font size
0
reset
how to read this tab
guitar tuner
edit
Autoscroll
slow
fast
+/-
esc
set tempo
stop
"Just Say When"
by Nothing More
Standard Tuning

Tabbed by Brands99

********************************************************************************************************

[Intro]

e|-----------------------|-------------------------------------|
B|-----------------------|-------------------------------------|
G|----5----5-5----9-9----|-----2-----2--2-----2--2---2---------|
D|----0----0-0----0-0----|-----3-----3--3-----3--3---3---------|  x6
A|----3----3-3----7-7----|-----3-----3--3-----3--3---3---------|
E|--5----5-----5--8-8--8-|--1--1--1-(1)(1)-1-(1)(1)--1-(0)-----|

 "We say words..."
e|-----------------------------------------|--------------------------------|
B|-----------------------------------------|--------------------------------|
G|---4----4-4---4-4------2---2-2----2-2----|---4----4-4---4-4------2--2-----|
D|---5----5-5---5-5------3---3-3----3-3----|---5----5-5---5-5------3--3-----|
A|---5----5-5---5-5------3---3-3----3-3----|---5----5-5---5-5------3--3-----|
E|-3----3------3-----3/1----1-----1-----1--|-3----3------3-----3/1----1-----|


[Chorus]

e|------------|-----------|-----------|----------|-----------x-x-x-----|
B|------------|-----------|-----------|----------|-----------x-x-x-----|
G|---5--------|-----------|-----------|----------|--2--------x-x-x-----|
D|---5--[x16]-|--2--[x16]-|--7--[x6]--|--5-[x6]--|--3-[x8]---x-x-x-----| x2  Don't mute strings second time
A|---3--------|--2--------|--7--------|--5-------|--3--------x-x-x-----|
E|---3--------|--0--------|--5--------|--3-------|--1--------x-x-x-----|

"The glass was..."
e|-------------------|
B|-------------------|
G|--(6)--(4)----2----|
D|---7----5-----3----|
A|---7----5-----3----|
E|---5----3-----1----|


e|-----------------------|-------------------------------------|
B|-----------------------|-------------------------------------|
G|----5----5-5----9-9----|-----2-----2--2-----2--2---2---------|
D|----0----0-0----0-0----|-----3-----3--3-----3--3---3---------|  x3
A|----3----3-3----7-7----|-----3-----3--3-----3--3---3---------|
E|--5----5-----5--8-8--8-|--1--1--1-(1)(1)-1-(1)(1)--1-(0)-----|

"and they were right"
e|--------------------------------------|----------x-x-x-x----|
B|--------------------------------------|----------x-x-x-x----|
G|--------------------------------------|---2------x-x-x-x----|
D|--------------------------------------|---3-[x8]-x-x-x-x----|
A|--------------------------------------|---3------x-x-x-x----|
E|-5-5-5-5-5-5-5-5--7-7-7-7-7-7-7-7--3--|---1------x-x-x-x----|
         *PM*             *PM*

[Chorus]

e|------------|-----------|-----------|----------|-----------x-x-x-----|
B|------------|-----------|-----------|----------|-----------x-x-x-----|
G|---5--------|-----------|-----------|----------|--2--------x-x-x-----|
D|---5--[x16]-|--2--[x16]-|--7--[x6]--|--5-[x6]--|--3-[x8]---x-x-x-----| 
A|---3--------|--2--------|--7--------|--5-------|--3--------x-x-x-----|
E|---3--------|--0--------|--5--------|--3-------|--1--------x-x-x-----|

e|-------------|------------|-----------|----------|---------|---------------------------|
B|-------------|------------|-----------|----------|---------|---------------------------|
G|---5---------|------------|-----------|----------|--2------|------------------2-2-2----|
D|---5--[x16]--|--2--[x16]--|--7--[x6]--|--5-[x6]--|--3-[x8]-|--7-7-7---5-5-5---3-3-3----|
A|---3---------|--2---------|--7--------|--5-------|--3------|--7-7-7---5-5-5---3-3-3----|
E|---3---------|--0---------|--5--------|--3-------|--1------|--5-5-5---3-3-3---1-1-1----|

"We keep circling"
e|------------------------|        |-------|
B|------------------------|        |-------|
G|--5---------------------|        |---2---|
D|--5-[x12]--7------------| [x3]   |---3---|
A|--3--------7--[x12]-----|        |---3---|
E|--3--------5------------|        |---1---|

[Chorus]

e|-------------------------------------------------x-x-x-----|
B|-------------------------------------------------x-x-x-----|
G|---5------------------------------------2--------x-x-x-----|
D|---5--[x16]--2--[x16]--7--[x6]--5-[x6]--3-[x8]---x-x-x-----| x2  Don't mute strings second time
A|---3---------2---------7--------5-------3--------x-x-x-----|
E|---3---------0---------5--------3-------1--------x-x-x-----|

e|-------------------|
B|-------------------|
G|--(6)--(4)----2----|
D|---7----5-----3----|
A|---7----5-----3----|
E|---5----3-----1----|

"So just say when"
e|-----------------------|-------------------------------------|
B|-----------------------|-------------------------------------|
G|----5----5-5----9-9----|-----2-----2--2-----2--2---2---------|
D|----0----0-0----0-0----|-----3-----3--3-----3--3---3---------|  x2
A|----3----3-3----7-7----|-----3-----3--3-----3--3---3---------|
E|--5----5-----5--8-8--8-|--1--1--1-(1)(1)-1-(1)(1)--1-(0)-----|


This is the closest I could get to the recording, not garunteeing that it's 100% accurate, but
I hope it helps. Please leave suggestions/corrections.

***********************************************************************************************************
 x   Mute strings
PM   Palm Mute
(n)  Ghost note

***********************************************************************************************************

            
            
Suggest correction
Creating personal tab
Creating personal tab
You can edit any tab online and save it as your Personal.

You can edit, replace or remove any tab part or add personal notes – all changes will be seen only by you.

Personal tabs can be accessed anytime from any device, even offline.
Learn more »
comments
print report bad tab
1 comment total.
+1 reply
jmeyer100 87 Aug 21, 2017 09:11 PM

Good tab!

If you need additional help, check out my youtube tutorial here:

https://www.youtube.com/watch?v=EntlXsj6yOI

guest
You may want to rate the tab now too:
select rating
Wanna post a correction for this tab? Suggest correction