Oops, an error
Loading. Please wait.

Punkenstein tab

by Notoken
41 views 1 this week
no commentswrite comment
1 2 3 4 5
3 more votes to show rating
add to favorites
×
Save as Personal and add changes to this tab that will be seen only by you. Learn more ›
×
You can save this tab as Personal to edit and correct it or add notes. All changes will be seen only by you. Learn more »
launch autoscroll
font size
0
reset
how to read this tab
guitar tuner
edit
Autoscroll
slow
fast
+/-
esc
set tempo
stop
Autor/Artista: Notoken
Titulo: punkenstein
Album: notoken 10 años
Trascrito por: Diego Benítez (diegob120@

  1er Intro 
e|-----------------------------------------------------------|
B|-----------------------------------------------------------|
G|-----------------------------------------------------------|
D|-5-5-5-5-5--10-10-10-10-10--13-13-13-13-13--12-12-12-12-12-|
A|-5-5-5-5-5--10-10-10-10-10--13-13-13-13-13--12-12-12-12-12-|
E|-3-3-3-3-3--8--8--8--8--8---11-11-11-11-11--10-10-10-10-10-|
PM:  ......... ...............  ..............  ............|  

  Verso/2do Intro                                              
e|-----------------------------------------------------------|
B|-----------------------------------------------------------|
G|-----------------------------------------------------------|
D|-5-5-5-5-5--10-10-10-10-10--13-13-13-13-13--12-12-12-12-12-|
A|-5-5-5-5-5--10-10-10-10-10--13-13-13-13-13--12-12-12-12-12-|
E|-3-3-3-3-3--8--8--8--8--8---11-11-11-11-11--10-10-10-10-10-|

  Chorus 
e|-----------------------------------------------------------|
B|-----------------------------------------------------------|
G|-----------------------------------------------------------|
D|-5-----------10-----------13------------12-----------------|
A|-5-----------10-----------13------------12-----------------|
E|-3-----------8------------11------------10-----------------|

1er Intro x2
2do Intro x2
Verso x4
2do Intro x2
Chorus x1    
Verso x1     
Chorus x1  
Verso x1
1er Intro x2
Verso x4
2do intro x2
Chorus x1    
Verso x1     
Chorus x1  
Verso x1  _
Chorus x1  |esta parte es más rápida
Verso x1   |     
Chorus x1  | 
Verso x1  _|  
1er Intro x2

            
            
Suggest correction
Creating personal tab
Creating personal tab
You can edit any tab online and save it as your Personal.

You can edit, replace or remove any tab part or add personal notes – all changes will be seen only by you.

Personal tabs can be accessed anytime from any device, even offline.
Learn more »
Give kudos to tab author, rate the tab!
1 2 3 4 5
comments
print report bad tab
guest
Wanna post a correction for this tab? Suggest correction