Oops, an error
Loading. Please wait.

Swallowed By The Moon tab

857 views 1 this week
no commentswrite comment
1 2 3 4 5
3 more votes to show rating
add to favorites
×
Save as Personal and add changes to this tab that will be seen only by you. Learn more ›
×
You can save this tab as Personal to edit and correct it or add notes. All changes will be seen only by you. Learn more »
launch autoscroll
font size
0
reset
how to read this tab
guitar tuner
edit
Autoscroll
slow
fast
+/-
esc
set tempo
stop
Code:
Suffixes for bend:
fb - full bend       hb - half bend
qb - quarter bend    t - tap bend
^ - Hold bend        r - release bend
~ - vibrato bend

Suffixes for harmonic:
ph - pinched harmonic      nh – natural harmonic
ah – artificial harmonic   hh – harp harmonic

Suffixes for mute:
. – palm mute            x – staccato mute
, - light palm mute      ; - heavy palm mute

Other:
/ - slide up to            \ - slide down to
h - hammer on              p - pull off
‘ - sustained note         * - see comment
" - tremolo note           <> - Trill
L – left channel only      R – right channel only
= - 12 string guitar part

Tuning  Bb f Bb E G C

Intro (0:00) play twice
[clean]                                                       [heavy]
|-9--9-9-8/9--9--9-9-9-9--9--8/9\8-8--8--8/9--9--9-8/9-9-9-9-9-|-----|
|-7--7-7-7----7--7-7-7-7--7--7-----7--7--7----7--7-7---7-7-7-7-|-----|
|-6--6-6-6----6--6-6-6-6--6--6-----6--6--6----6--6-6---6-6-6-6-|-----|
|--------------------------------------------------------------|-----|
|--------------------------------------------------------------|-5-0-|
|--------------------------------------------------------------|-5-0-|

|--------------------------------------------------------------|-----|
|-7--------------------------7--7--7--7------------------------|-----|
|--------------------------------------------------------------|-----|
|-4--------------------------4--4--4--4------------------------|-----|
|--------------------------------------------------------------|-5-0-|
|--------------------------------------------------------------|-5-0-|

[heavy]
-------------------|
-------------------|
-------------------|
-------------------| gtr 1 – has a twangy, crunching clean sound
-0--0-0-5-0--0--0--|
-0--0-0-5-0--0--0--|

-------------------|
-------------------|
-------------------|
-------------------| gtr 2 – smoother clean sound, less audible
-0--0-0-5-0--0--0--|
-0--0-0-5-0--0--0--|


Riff 1 (0:14) play twice
|-------------------------------------|
|-------------------------------------|
|-------------------------------------|
|---------------------------7--7-7--7-|
|-2--2--2-2--2-2--2-5--5--5-5--5-5--5-|
|-4--4--4-4--4-4--4-5--5--5-----------|


Riff 2a (0:27)
|---------------------------------------|
|---------------------------------------|
|---------------------------------------|
|---------------------------------------|
|-6--6--6-6--6-6--6--0--0--0-0--0-0--0--|
|-6--6--6-6--6-6--6--0--0--0-0--0-0--0--|

Riff 2b (0:35)
|---------------------------------------|
|---------------------------------------|
|---------------------------------------|
|---------------------------------------|
|-6--6--6-6--6-6--6--3--3--3-4--4-4--4--|
|-6--6--6-6--6-6--6--3--3--3-4--4-4--4--|

Riff 3 (0:41) play 4 times
|------------------------------------------|
|------------------------------------------|
|------------------------------------------|
|---------------------------------------3--|
|-0-0--0--0-0-0-0-0-0-0-0-0--0--0-1--1--1--|
|-0-0--0--0-0-0-0-0-0-0-0-0--0--0-1--1-----|
  . .  .  . . . . . . . . .  .  .

Riff 4 (0:55)
|---------------------------------------|
|---------------------------------------|
|---------------------------------------|
|---------------------------------------|
|-6--6--6-6--6-6--6--6--6--6-6--6-6--6--|
|-6--6--6-6--6-6--6--6--6--6-6--6-6--6--|

Riff 3 x 1 (1:02)
Riff 4 x 1 (1:15)

Riff 5a (1:22)
|---------------------------------------|
|---------------------------------------|
|------------------------5----7----7--\-|
|-5--5--7-8--7-5--5-7-------------------| gtr 1
|---------------------------------------|
|---------------------------------------|

|---------------------------------------|
|---------------------------------------|
|---------------------------------------|
|---------------------------------------| gtr 2
|-5--5--5-5--5-5--5-8--8-8--8-8--8-8--8-|
|-5--5--5-5--5-5--5-8--8-8--8-8--8-8--8-|

Riff 5b (1:29)
|---------------------------------------|
|---------------------------------------|
|---------------------------------------|
|-5--5--7-8--7-5--5-6----6--6-8--8-6--6-| gtr 1
|---------------------------------------|
|---------------------------------------|

|---------------------------------------|
|---------------------------------------|
|---------------------------------------|
|---------------------------------------| gtr 2
|-5--5--5-5--5-5--5-6--6-6--6-6--6-6--6-|
|-5--5--5-5--5-5--5-6--6-6--6-6--6-6--6-|

Riff 5a x 1 (1:36)
Riff 5b x 1 (1:43)
Riff 3 x 1 (1:50)
Riff 4 x 1 (2:03)
Riff 3 x 1 (2:10)
Riff 4 x 1 (2:24)
Riff 5a x 1 (2:31)
Riff 5b x 1 (2:38)
Riff 5a x 1 (2:44)
Riff 5b x 1 (2:51)

Fill 1 (2:58)
|---------------------------------------|
|---------------------------------------|
|---------------------------------------|
|---------------------------------------|
|-0-------------------------------------|
|-0-------------------------------------|

Acoustic part (2:58)

Riff 6a (3:25)
|---------------------------------------------------------------|
|---------------------------------------------------------------|
|-------------9--9--9--------------9--9--9----------------------|
|-------------7--7--7--------------7--7--7--5--5-5--------------|
|-0-0-0-0-0-0-5--5--5--0-0-0-0-0-0-5--5--5--3--3-3--3-5--5-5--5-|
|-0-0-0-0-0-0----------0-0-0-0-0-0------------------3-5--5-5--5-|
  . . . . . .          . . . . . .

Riff 6b (3:32)
|---------------------------------------------------------------|
|---------------------------------------------------------------|
|-------------9--9--9--------------9--9--9----------------------|
|-------------7--7--7--------------7--7--7--5--5-5--------------|
|-0-0-0-0-0-0-5--5--5--0-0-0-0-0-0-5--5--5--3--3-3--0-1--1-1--1-|
|-0-0-0-0-0-0----------0-0-0-0-0-0------------------0-1--1-1--1-|
  . . . . . .          . . . . . .

Riff 6a x 1 (3:39)
Riff 6b x 1 (3:46)

Riff 7a (3:53) play 4 times
|----------------------------|
|----------------------------|
|-9--9-9--9------------------|
|-7--7-7--7------------------|
|-5--5-5--5-6--8\6--1--1--1--|
|-----------6--8\6--1--1--1--|

Riff 3 x 1 (4:07)
Riff 4 x 1 (4:20)
Riff 3 x 1 (4:27)
Riff 4 x 1 (4:41)
Riff 5a x 1 (4:48)
Riff 5b x 1 (4:54)
Riff 5a x 1 (5:01)
Riff 5b x 1 (5:08)
Riff 5a x 1 (5:15)
Riff 5b x 1 (5:22)
Riff 5a x 1 (5:28)
Riff 5b x 1 (5:35)

End (5:42)
|---------------------------------------|
|---------------------------------------|
|---------------------------------------|
|---------------------------------------| gtr 1
|-5-------------------------------------|
|-5-------------------------------------|

|---------------------------------------|
|---------------------------------------|
|---------------------------------------|
|-5-------------------------------------| gtr 2
|---------------------------------------|
|---------------------------------------|

            
            
Suggest correction
Creating personal tab
Creating personal tab
You can edit any tab online and save it as your Personal.

You can edit, replace or remove any tab part or add personal notes – all changes will be seen only by you.

Personal tabs can be accessed anytime from any device, even offline.
Learn more »
Give kudos to tab author, rate the tab!
1 2 3 4 5
comments
print report bad tab
guest
Wanna post a correction for this tab? Suggest correction