Oops, an error
Loading. Please wait.

Chernobyl Hamster bass

500 views 1 this week
no commentswrite comment
1 2 3 4 5
3 more votes to show rating
add to favorites
×
Save as Personal and add changes to this tab that will be seen only by you. Learn more ›
×
You can save this tab as Personal to edit and correct it or add notes. All changes will be seen only by you. Learn more »
launch autoscroll
font size
0
reset
guitar tuner
edit
Autoscroll
slow
fast
+/-
esc
set tempo
stop
Author
Re-tabbed by Kyle86
email: kile_nites@yahoo.com

Originally tabbed By : max
e-mail:maxstollmeyer@yahoo.com

I saw this tab and decided it was pretty close, but not perfect. Here's my version of it.


Tuning: standard, 5 string

Play this using slapping and popping. I'm not entirely sure about those last two notes. 
sound right unless they're played along with the actual song...
G|------8-x----------------8-x---------------|
D|--------------9~------------------x--------|
A|--6-x----------------6-x-------------9-7---|
E|----------6-7~---------------6-7-x---------|
B|-------------------------------------------| x2

Then:

G|-------------------------------------------|
D|-------------------------------------------|
A|-------------------------------------------|
E|-------------------------------------------|
B|--4-4---4-4-4---4-4-4----4---4---4---4-----|


This is the intro to the verse. Tap the lower notes with your left hand and the higher 
with your right. Or, you can just play them normally (fingerstyle), but it sounds a bit weird.

G|--------------------------------|
D|---------8-----8-----9-------7--|
A|-----6-------------------5------|
E|------------6-----7-------------| x3
B|--------------------------------|

Rest one measure.

Verse:

G|--------------------------------|
D|---------8-----8-----9-------7--|
A|-----6-------------------5------|
E|------------6-----7-------------| x3
B|--------------------------------|


G|------------------------------------------------------------------------------|
D|------6-----6----7------5--------6-----6------7------5------------------------|
A|--4------------------3--------4------------------3----------------------------|
E|---------4-----5--------------------4------5----------------------------------|

G|-----------------------------------------------------------------------------|
D|-----8------8------9-------7--------8-----8------9--------7------------------|
A|--6--------------------5--------6---------------------5----------------------|
E|--------6------7-----------------------6-------7-----------------------------|

G|------6-----6------7-------5--------6-----6------7-------5-------------------|
D|---4-------------------3---------4-------------------3-----------------------|
A|---------4------5-----------------------4-----5------------------------------|
E|-----------------------------------------------------------------------------|

G|-------8------7/6-----------------------------------------------------------|
D|---------------------------8------9------10---------------------------------|
A|---6-------5---------------------------------9------------------------------|
E|-----------------------6-------7-----8--------------------------------------|
               do that twice and then do the next part slaping.

G|-----------------------------------------------------------------------------|
D|-----------------------------------------------------------------------------|
A|---6-x-5-5-4-x-3--------------------6-x-5-x-x-4-x-3--------------------------|
E|--------------------6-x-7-7-8-x-2--------------------6-x-7-7-8-x-x-2---------|
           do the hole verse again. the next part the bass is vust improvising so do the
in the cords D sharp and C.

this part is the bridge and its just this cool little riff. play it twice without
and then the rest is slaped.

G|-----------------------------------------------------------------------------|
D|-----------------23--3-3/5-3-2h3p2----2--------------------------------------|
A|-------------234-------------------4----4323---------------------------------|
E|-1-3-4--134-----------------------------------4323---------------------------|
          do that four times and then its this.
G|------------------7-9-10--12-13--13-13/15-13-12h13p12-10-12-10989--------|
D|--7-9-10--7-9-10--------------------------------------------------10989--|
A|-------------------------------------------------------------------------|
E|-------------------------------------------------------------------------|       that
a little bit different but its right. then do the other riff four times again and your done.

/  slide up
| \  slide down
| h  hammer-on
| p  pull-off
| ~  vibrato
| +  harmonic
| x  Mute note

            
            
Suggest correction
Creating personal tab
Creating personal tab
You can edit any tab online and save it as your Personal.

You can edit, replace or remove any tab part or add personal notes – all changes will be seen only by you.

Personal tabs can be accessed anytime from any device, even offline.
Learn more »
Give kudos to tab author, rate the tab!
1 2 3 4 5
comments
print report bad tab
guest
You may want to rate the tab now too:
select rating
Wanna post a correction for this tab? Suggest correction