Oops, an error
Loading. Please wait.

My Hideous Claw bass

383 views 3 this week
2 commentsread comments
1 2 3 4 5
3 more votes to show rating
add to favorites
×
Save as Personal and add changes to this tab that will be seen only by you. Learn more ›
×
You can save this tab as Personal to edit and correct it or add notes. All changes will be seen only by you. Learn more »
launch autoscroll
font size
0
reset
guitar tuner
edit
Autoscroll
slow
fast
+/-
esc
set tempo
stop
Author
Part 1

G|-----------------|-----------------|-----------------|-----------------|
D|-----------------|-----------------|-----------------|-----------------|
A|-----------------|-----------------|-----------------|-6-6-6-6-6-6-6-6-|
E|-3-3-3-3-3-3-3-3-|-3-3-3-3-5-5-5-5-|-6-6-6-6-6-6-6-6-|-----------------|
B|-----------------|-----------------|-----------------|-----------------|

G|-----------------|-----------------|-----------------|-----------------|
D|-----------------|-----------------|-----------------|-----------------|
A|-----------------|-----------------|-----------------|-----------------|
E|-3-3-3-3-3-3-3-3-|-3-3-3-3-5-5-5-5-|-6-6-6-6-6-6-6-6-|-----------------|
B|-----------------|-----------------|-----------------|-4-4---4-4---4---|


Part 2

G|-----------------|-----------------|
D|-----------------|-----------------|
A|-----------------|-----------------|
E|-----------------|------------21---|
B|-3--3-3--30------|-3--3-3--303-----|

on the third time each verse, play
A|--------------23-|
E|------------21---|
B|-3--3-3--303-----|
instead of the normal ending.


Part 3

G|-------------|-------------|-------------|
D|-------------|-------------|-------------|
A|-------------|-------------|-------------|
E|-5-0-0-0-0-0-|-5-0-0-0-0-0-|-0-0-0-0-0-0-|
B|-------------|-------------|-------------|

G|-------------|-------------|-------------|
D|-------------|-------------|-------------|
A|-------------|-------------|-------------|
E|-5-0-0-0-0-0-|-5-0-0-0-0-0-|-5-6-8-6-5-4-|
B|-------------|-------------|-------------|


Part 4

G|--------------|--------------|--------------|--------------|
D|--------------|--------------|--------------|--------------|
A|--------------|--------------|--------------|--------------|
E|--------------|--------------|--------------|--------------|
B|--3--3--3--3--|--3--3--3--3--|--3--3--3--3--|--3444-3444---|

Those should be all of the bass parts. There's a little part at the beginning where the 
plays the guitar part too for a moment, but it's not very important. If you care, 
it's just 7s and 8s on the g string.

            
            
Suggest correction
Creating personal tab
Creating personal tab
You can edit any tab online and save it as your Personal.

You can edit, replace or remove any tab part or add personal notes – all changes will be seen only by you.

Personal tabs can be accessed anytime from any device, even offline.
Learn more »
Give kudos to tab author, rate the tab!
1 2 3 4 5
comments
print report bad tab
2 comments total.
0 reply
Kyle86 71 Apr 04, 2009 09:02 AM

i accidentily posted this as being a guitar tab, rather than a bass tab! how can i fix that?

0 reply
Kyle86 71 Apr 04, 2009 09:10 AM

wait... ignore that. i either saw incorrectly, or it's already fixed. but anyway, im a little unsure of one tiny piece of part two. if something doesn't work for you, try shifting it up or down a fret...

guest
You may want to rate the tab now too:
select rating
Wanna post a correction for this tab? Suggest correction