Oops, an error
Loading. Please wait.

Dareh Meyod tab

version 2
version 2

Whole song

by O.A.R.
1,361 views 1 this week
no commentswrite comment
1 2 3 4 5
2 more votes to show rating
add to favorites
×
Save as Personal and add changes to this tab that will be seen only by you. Learn more ›
×
You can save this tab as Personal to edit and correct it or add notes. All changes will be seen only by you. Learn more »
launch autoscroll
font size
0
reset
how to read this tab
guitar tuner
edit
Autoscroll
slow
fast
+/-
esc
set tempo
stop
Author
Band: O.A.R. (Of a Revolution)
Song: Dareh Meyod
Album: In Between Now and Then
Tabbed by: O-52-A-50-R

Intro (0:00-0:22)

Guitar 1
|---------------------------|
|---------------------------|
|---------------------------|
|4--4-2-4-2---------------2-|
|-----------4-2-4-2-4-2-4---|


That goes all throughout the intro for guitar 1


Guitar 2
|------------------------|
|x-4-4-x-4-4-x-5-5-x-5-5-|
|------------------------|
|------------------------|
|------------------------|
|------------------------|


Play that three times and end on:

|-4-
|-5-
|-6-
|---
|---
|---

Verse 1 (0:22-0:54)

|-------------------------|
|-------------------------|
|-------------------------|
|-------------------------|
|4—4-2-4-2--------------2-|
|----------4-2-4--4-2-4—--|

Repeat that until 0:34, then go into this:

|--------------------|
|--------------------|
|--------------------|
|--------------2-1---|
|4-4-4-2-0---------4-|
|----------4-4-------|

Then back to:

|-------------------------|
|-------------------------|
|-------------------------|
|-------------------------|
|4—4-2-4-2--------------2-|
|----------4-2-4--4-2-4—--|

Repeat that until 0:50 then play this again:

|--------------------|
|--------------------|
|--------------------|
|--------------2-1---|
|4-4-4-2-0---------4-|
|----------4-4-------|


Guitar 2

|x-4-4-x-4-4-x-4-4-x-4-4-|
|x-5-5-x-5-5-x-4-4-x-4-4-|
|------------------------|
|------------------------|
|------------------------|
|------------------------|

Repeat that until 0:34 then play:

|-4-------4-|
|-5-------4-|
|-6-------5-|
|-----------|
|-----------|
|-----------|

Play those two chords only once each then go back to this at 0:38


|x-4-4-x-4-4-x-4-4-x-4-4-|
|x-5-5-x-5-5-x-4-4-x-4-4-|
|------------------------|
|------------------------|
|------------------------|
|------------------------|

Repeat that then
at 0:50 go back to the two chords ( only once each )

|-4-------4-|
|-5-------4-|
|-6-------5-|
|-----------|
|-----------|
|-----------|

Chorus (0:54-1:10)

Guitar 1

|-----------------|
|-----------------|
|-----------------|
|--2---2----1---1-|
|4---4------------|
|---------4---4---|

Repeat that until 1:05 and then switch to

|--------------------|
|--------------------|
|--------------------|
|--------------------|
|0-0-0-------------2-|
|------4-2-0-0-0-4---|



Guitar 2

|4-4-4--4-4-4--2-2-2--2-2-2-|
|5-5-5--5-5-5--4-4-4--4-4-4-|
|---------------------------|
|---------------------------|
|---------------------------|
|---------------------------|

Repeat that until 1:05 then stop playing until 1:10
(Verse 2)


Verse 2 (1:10-1:49)

|-------------------------|
|-------------------------|
|-------------------------|
|-------------------------|
|4—4-2-4-2--------------2-|
|----------4-2-4--4-2-4—--|

Repeat that until 1:28, then go into this:

|--------------------|
|--------------------|
|--------------------|
|--------------2-1---|
|4-4-4-2-0---------4-|
|----------4-4-------|

Then back to:

|-------------------------|
|-------------------------|
|-------------------------|
|-------------------------|
|4—4-2-4-2--------------2-|
|----------4-2-4--4-2-4—--|

Repeat that until 1:44 then play this again:

|--------------------|
|--------------------|
|--------------------|
|--------------2-1---|
|4-4-4-2-0---------4-|
|----------4-4-------|


Guitar 2

|x-4-4-x-4-4-x-4-4-x-4-4-|
|x-5-5-x-5-5-x-4-4-x-4-4-|
|------------------------|
|------------------------|
|------------------------|
|------------------------|

Repeat that until 1:28 then play:

|-4-------4-|
|-5-------4-|
|-6-------5-|
|-----------|
|-----------|
|-----------|

Play those two chords only once each then go back to this


|x-4-4-x-4-4-x-4-4-x-4-4-|
|x-5-5-x-5-5-x-4-4-x-4-4-|
|------------------------|
|------------------------|
|------------------------|
|------------------------|

Repeat that then
at 1:44 go back to the two chords ( only once each )
|-4-------4-|
|-5-------4-|
|-6-------5-|
|-----------|
|-----------|
|-----------|


Chorus 2 (1:49-2:04)


Guitar 1

|-----------------|
|-----------------|
|-----------------|
|--2---2----1---1-|
|4---4------------|
|---------4---4---|

Repeat that until 1:59 and then switch to

|--------------------|
|--------------------|
|--------------------|
|--------------------|
|0-0-0-------------2-|
|------4-2-0-0-0-4---|

Guitar 2

|4-4-4--4-4-4--2-2-2--2-2-2-|
|5-5-5--5-5-5--4-4-4--4-4-4-|
|---------------------------|
|---------------------------|
|---------------------------|
|---------------------------|

Repeat that until 1:59 then stop playing



Saxophone Solo (2:04-2:18)

Guitar 1

|---------------------------|
|---------------------------|
|---------------------------|
|4--4-2-4-2---------------2-|
|-----------4-2-4-2-4-2-4---|

Repeat twice and let the last note ring

Guitar 2
|------------------------|
|x-4-4-x-4-4-x-5-5-x-5-5-|
|------------------------|
|------------------------|
|------------------------|
|------------------------|


Play that three times and end on:

|-4-
|-5-
|-6-
|---
|---
|---


Guitar solo (2:18-2:50)

Soloing Guitar

|----------------------------------------9---|
|-------------------------9-12-9-12-9-12-----|
|------------6-9-6-9-6-9---------------------|
|6-9-6-9-6-9---------------------------------|
|--------------------------------------------|
|--------------------------------------------|

Play that twice then:

|9-7-9-7—------------------------------|
|--------9-7-9-7-9-7-------------------|
|--------------------9-6---------------|
|------------------------9-6-9-6-------|
|--------------------------------9-6---|
|------------------------------------9-|


|9-7-9-7—------------------------------|
|--------9-7-9-7-9-7-------------------|
|--------------------9-6-------------9-|
|------------------------9-6-9-6-9-6---|
|--------------------------------------|
|--------------------------------------|


Guitar 2

|-4-4-
|-5-4-
|-6-5-
|-----
|-----
|-----

 Repeat those two chords all the way through the solo


Outro / Keyboard Solo / Saxophone Solo (2:50-END)

Guitar 1
|---------------------------|
|---------------------------|
|---------------------------|
|4--4-2-4-2---------------2-|
|-----------4-2-4-2-4-2-4---|

Repeat that till end


Guitar 2

N/A




***********
Heres the cool intro that they do in some concerts (Ex. 34th & 8th)


Bass line (Note its in a much deeper octave because its bass)

|---------------------------------------|
|---------------------------------------|
|---------------------------------------|
|---------------------------------------|
|4---11-11-11-14-11/-4---11-11-11-14-11/|
|---------------------------------------|

*Make sure to SLIDE back to the 4th fret or it doesn't sound as good


Guitar 
|---------------|
|---------------|
|---------------| (Repeat until you feel ready to go on, usually 4 times)
|---------------|
|-2-4-4-4-2-4-2-|
|---------------|


|------------------------------------|
|------------------------------------|
|------------------------------------| (2x)
|------------------------------------|
|-2-4-4-4-2-4-2-2-2-2----------------|
|----------------------4-4-4-4-2-2-2-|


|-----------------------------------|
|-----------------------------------|
|-----------------------------------|
|---2-2-2---2-----------------------| (4x ?)
|-4-------4---4-4-4-2-2-2----2-2-2--|
|--------------------------4--------|

Then repeat the first part and Jerry (sax) plays a little thing between each pause....Marc starts singing...



Little Sax Part (Transcribed from sax to guitar, from 3th and 8th album)

*Sax in parenthesis

|-----------------(0)-(0)-(0)-(0)-----|
|---------------------------------(2)-|
|-------------------------------------|
|-------------------------------------|
|-2-4-4-4-2-4-2-----------------------|
|-------------------------------------|


|-------------------------------------|
|---------------(4)-(4)-(4)-(4)-------|
|--------------------------------(4)--|
|-------------------------------------|
|-2-4-4-4-2-4-2-----------------------|
|-------------------------------------|








            
            
Suggest correction
Creating personal tab
Creating personal tab
You can edit any tab online and save it as your Personal.

You can edit, replace or remove any tab part or add personal notes – all changes will be seen only by you.

Personal tabs can be accessed anytime from any device, even offline.
Learn more »
Give kudos to tab author, rate the tab!
1 2 3 4 5
comments
print report bad tab
guest
You may want to rate the tab now too:
select rating
Wanna post a correction for this tab? Suggest correction