Oops, an error
Loading. Please wait.

Love And Memories bass

version 1
version 1

Whole song

Interactive

by O.A.R.
4,810 views 1 this week
2 commentsread comments
1 2 3 4 5
x 3
add to favorites
×
Save as Personal and add changes to this tab that will be seen only by you. Learn more ›
×
You can save this tab as Personal to edit and correct it or add notes. All changes will be seen only by you. Learn more »
launch autoscroll
font size
0
reset
guitar tuner
edit
Autoscroll
slow
fast
+/-
esc
set tempo
stop
Author
Difficulty
Artist   : O.A.R (Of A Revolution)
Title    : Love and Memories
Tabbed By: Bassersam
Tuning   : Standard  EADG

I noticed there were no tabs for this song so I decided to tab it out.
I’m pretty sure it’s correct because I have been working on it for a while

Intro (start at 0.08)
G|------------------------------------------|
D|------------------------------------------|
A|------------------------------------------|
E|--7-7-7/9-9-9-9/17-17-17-17\12-12-12-12---|

G|-----------------------------------|
D|-----------------------------------|
A|-----------------------------------|  X1
E|--7-7-7/9-9-9-9\5-5-5-5\0-0-0-0----|

Verse
G|-------------------------------------------------------------------|
D|-------------------------------------------------------------------|
A|--6667777777777777--------------------------------6667777777777777-|X2
E|------------------77777777777777777776665555555555-----------------|

Chorus
G|----------------------------------------------|
D|----------------------------------------------|
A|----------------------------------------------|
E|--7-7-7---9-9-9-9--17-17-17-17--12-12-12-12---|

G|----------------------------------------|
D|----------------------------------------|
A|----------------------------------------|   X2
E|--7-7-7---9-9-9-9---5-5-5-5--0-0-0-0----|

Verse 2
G|-------------------------------------------------------------------|
D|-------------------------------------------------------------------|
A|--6667777777777777--------------------------------6667777777777777-|X2
E|------------------77777777777777777776665555555555-----------------|

Chorus
G|----------------------------------------------|
D|----------------------------------------------|
A|----------------------------------------------|
E|--7-7-7---9-9-9-9--17-17-17-17--12-12-12-12---|


G|----------------------------------------|
D|----------------------------------------|
A|----------------------------------------|   X4
E|--7-7-7---9-9-9-9---5-5-5-5--0-0-0-0----|

Bridge
G|------------------------------------------------|
D|----------------------------9—9p7---------------|
A|--7-----------5----------7h9-----7----------9---|  X1
E|------------------------------------------------|

Verse 3
G|-------------------------------------------------------------------|
D|-------------------------------------------------------------------|
A|--6667777777777777--------------------------------6667777777777777-|X1
E|------------------77777777777777777776665555555555-----------------|

Chorus
G|----------------------------------------------|
D|----------------------------------------------|
A|----------------------------------------------|
E|--7-7-7---9-9-9-9--17-17-17-17--12-12-12-12---|

G|----------------------------------------|
D|----------------------------------------|
A|----------------------------------------|   X6
E|--7-7-7---9-9-9-9---5-5-5-5--0-0-0-0----|

There you go
Please rate and send any corrections to rugbystar69@msn.com
Thanks

            
            
Suggest correction
Creating personal tab
Creating personal tab
You can edit any tab online and save it as your Personal.

You can edit, replace or remove any tab part or add personal notes – all changes will be seen only by you.

Personal tabs can be accessed anytime from any device, even offline.
Learn more »
Give kudos to tab author, rate the tab!
1 2 3 4 5
comments
print report bad tab
2 comments total.
0 reply
TheBassist123 10 Jul 26, 2007 11:21 PM

awesome tab for an awesome song

0 reply
greenmw91 136 May 12, 2011 05:26 PM

The bridge is incorrect. This is what it should be.

G|-----------------------------5------------------|
D|---------------------------5----5---------------|
A|--7-----------5----------3--------33---2--------| X1
E|------------------------------------------------|

Also, on occasion, the chorus ends on 9 (E string) or 4 (A string).

Otherwise great tab!!

guest
You may want to rate the tab now too:
select rating
Wanna post a correction for this tab? Suggest correction