Oops, an error
Loading. Please wait.

War Song intro tab

version 1
version 1

Intro

by O.A.R.
8,990 views 9 this week
3 commentsread comments
1 2 3 4 5
x 5
add to favorites
×
Save as Personal and add changes to this tab that will be seen only by you. Learn more ›
×
You can save this tab as Personal to edit and correct it or add notes. All changes will be seen only by you. Learn more »
launch autoscroll
font size
0
reset
how to read this tab
guitar tuner
edit
Autoscroll
slow
fast
+/-
esc
set tempo
stop
Author
Difficulty
War Song

By: O.A.R.

Intro: Am C G E

I--------------------------------------------------------I
I--------------------------------------------------------I
I--------------------9-----------------------------------I
I----------9-10---10---12-10--------------10-------------I
I-12--10-12----12-----------10---10--10-12--12-----------I
I----------------------------------12--------------------I


I--------------------------------------------------------I
I--------------------------------------------------------I
I--------------------9-----------------------------------I
I----------9-10---10-----9-------------10----------------I
I-12--10-12----12-------------10--10-12--12--------------I
I-------------------------------12-----------------------I

*Side-Note*

    -This song is bad-ass


Tabbed by: J-Meaux


            
            
Suggest correction
Creating personal tab
Creating personal tab
You can edit any tab online and save it as your Personal.

You can edit, replace or remove any tab part or add personal notes – all changes will be seen only by you.

Personal tabs can be accessed anytime from any device, even offline.
Learn more »
comments
print report bad tab
3 comments total.
+2 reply
slowhand dom 10 Oct 04, 2008 01:05 PM

dude, thank you so much for tabbing this. this song is awesome

+1 reply
nuggetWRX 10 Oct 12, 2008 10:14 PM

Intro:   Am  C  G  E

E -----------------------------------------------------
B -----------------------------------------------------
G -----------------------------------------------------
D ---------------------14-12---------------------------
A 12----12-14-15-12-15-------14-10----10----10----14-12
E ---12----------------------------------12----12------

E --------------------------------------------
B --------------------------------------------
G --------------------------------------------
D ------------------12------------------------
A ---12-14-15-12-15----14----10----10----14-12
E 12----------------------------12----12------

0 reply
mmathews92 20 Jan 15, 2010 08:16 PM

These are the rights notes but the way O.A.R. plays it is further down the neck. But really all that would affect is the tone

guest
You may want to rate the tab now too:
select rating
Wanna post a correction for this tab? Suggest correction