Oops, an error
Loading. Please wait.

Listen Up tab

version 2
version 2

Whole song

by Oasis
9,439 views 9 this week
4 commentsread comments
1 2 3 4 5
x 7
add to favorites
×
Save as Personal and add changes to this tab that will be seen only by you. Learn more ›
×
You can save this tab as Personal to edit and correct it or add notes. All changes will be seen only by you. Learn more »
launch autoscroll
font size
0
reset
how to read this tab
guitar tuner
edit
Autoscroll
slow
fast
+/-
esc
set tempo
stop
This is based on Noel and Gems's performance at the Caberet Sauvage.  Everything sounds 
cos i've played it with a buddy before.  The tempo is pretty easy and you should be able 
figure it out when you listen to the song.  You can listen to it Youtube.

Acoustic part:

Intro and Verse

Capo on 2nd fret so chords names are due to location to the capo, so an F#m without the 
is now a Em.
Chords that im not sure about the names

***Note (frets start on capo)****
G/F#:  200033
Em/C:  x21000
Em/B:  x20000
A7?:   x02233
Amaj7: x02033


Intro: Em  G  D  C  G G/F# 2x

G/F#   Em             G         D               C       G
Listen up what's the time said today i'm gonna speak my mind
G/F#    Em        G           D            C       G
Take me up to the top of the world i wanna see my crime
G/F#    Em            G        D               C        G
Day by day there's a man in a suit he's gonna make you pay
G/F#    Em                 G             D        C             G
For the thoughts that you think and the words he wont let you say

Bridge:

Em        Em/C           Em/B              A7?  Amaj7?
One fine day, I'm gonna leave you all behind
                 C                    D
It wouldn't be so bad if i had more time

Chorus:

          C             G       D
But I'm sailin' down a river alone
          C                 G        Em
I'm still tryin' to find my way back home
       C              G
and i dont believe in magic
C           G
life is automatic
A7?         C                G
and i dont mind being on my own
            A7?    C                 G
i said that i dont mind being on my own

**after chorus play G for a while untill solo**

Solo for Acoustic: play the intro then play the bridge

They Play the chorus one more but does the "i don't mind...on my own" a few times more.

*Electric Part*
Played by Gem without a capo.

Verse and Bridge:

e -----2-------2-----|
B ---0---0---0---0---|
G -2-------2-------2-| *This repeats thoughout the verse and the bridge*
D -------------------|
A -------------------|
E -------------------|

Chorus A:

e -12--------------------|
B -----14-12-14-12-------|
G -----------------14-11-|
D -----------------------| *This is played during the first chorus and the
A -----------------------|  long "G" part before the solo
E------------------------|

Solo:
part A
e -----------------------------------|0]
B -----------------------------------|
G [14]------------16-18-18b19-14[14--| *Play 2x but on the 2nd time dont play
D ----16----14-16--------------------|  the notes in []*
A -----------------------------------|
E -----------------------------------|

part B
e -----------------------------------------------------------------|
B ------------------------------12-------------------------12------|
G 14-14b16-12h14-12-------12-14--14b16-12h14-12-------12-14-14b16--|
D -----------------12/14-------------------------------------------|
A -----------------------------------------------------------------|
E -----------------------------------------------------------------|

e -------------------------------------------------------------------|
B ----------------------12----------------12-------------------------|
G -12h14-12-------12-14-14b16-12h14-12----14b16-12h14-12-------12-14-|
D ----------12/14----------------------------------------12/14-------|
A -------------------------------------------------------------------|
E -------------------------------------------------------------------|

e ------------------------------------------------------------|
B -12---------------------------------------------------------|
G -14b16-12h14-12-------12--------12-------12------12------12-| *End of
D ----------------12h14-----12h14----12h14----12h14---12h14---|  Solo*
A ------------------------------------------------------------|
E ------------------------------------------------------------|

Chorus B: (Gem Plays chords that goes along with Noel)

the are (in order)

e -2-0-0-2-0-0-2-0-2-0-*0-0-0--------------------------------|
B -3-2-0-3-2-0-3-2-3-2-*0-3-2--------------------------------|
G -2-2-1-2-2-2-2-2-2-2-*2-2-2-*  **Repeat part in *...* 2x---|
D -0-2-2-0-2-4-0-2-0-2-*1-0-2--------------------------------|
A ---0-2---0-4---0---0-*2---0--------------------------------|
E ---------------------*-------------------------------------|

After this play the first chorus part untill the end

**Overview**

[Acoustic]       [Electric]
intro            intro/verse/brige
verse            chorus a
bridge           solo A
chorus           solo B
intro>solo       chorus b
bridge>solo      chorus a
chorus

            
            
Suggest correction
Creating personal tab
Creating personal tab
You can edit any tab online and save it as your Personal.

You can edit, replace or remove any tab part or add personal notes – all changes will be seen only by you.

Personal tabs can be accessed anytime from any device, even offline.
Learn more »
comments
print report bad tab
4 comments total. Showing first comments.
0 reply
nick oak 10 Mar 23, 2009 11:27 AM

Nice tab fella *****

0 reply
Bmywuk 10 Feb 26, 2010 07:46 AM

e -----2-------2-----|
B ---0---0---0---0---|
G -2-------2-------2-|
D -------------------|
A -------------------|
E -------------------|

- wrong, should be

e -----0-------0-----|
B ---2---2---2---2---|
G -0-------0-------0-|
D -------------------|
A -------------------|
E -------------------|

0 reply
Bmywuk 10 Feb 26, 2010 07:54 AM

oh, I'm sorry

e -----0-------0-----|
B ---3---3---3---3---|
G -0-------0-------0-|
D -------------------|
A -------------------|
E -------------------|

guest
Wanna post a correction for this tab? Suggest correction