Oops, an error
Loading. Please wait.

Turn Up The Sun bass

version 2
version 2

Whole song

Interactive

by Oasis
1,051 views 1 this week
no commentswrite comment
1 2 3 4 5
3 more votes to show rating
add to favorites
×
Save as Personal and add changes to this tab that will be seen only by you. Learn more ›
×
You can save this tab as Personal to edit and correct it or add notes. All changes will be seen only by you. Learn more »
launch autoscroll
font size
0
reset
guitar tuner
edit
Autoscroll
slow
fast
+/-
esc
set tempo
stop
/ ---> slide up
\ ---> slide down

INTRO
G|----------------------------------------|
D|-2-/-14---------------------------------|
A|----------------------------------------|
E|---------14-14-\-2-2-3-3-3-3-2-2-/-9-2--|

than it starts
G|--------------------------------------|
D|--------------------------------------|
A|-2222220022222------------------------|
E|--------------------------------------|

VERSE
I carry madness
everywhere I go
over the border
and back to the snow
G|--------------------------------------|
D|--------------------------------------|
A|-2222220022222------------------------|
E|--------------------------------------|

so if you see me
and I look right through
G|--------------------------------------|
D|-2222220022222------------------------|
A|--------------------------------------|
E|--------------------------------------|

you shouldn't take it
as a reflection on you
G|--------------------------------------|
D|--------------------------------------|
A|-2222220022222------------------------|
E|--------------------------------------|

CHORUS
com'n turn up the sun
turn it up for everyone
G|--------------------------------------|
D|--------------------------------------|
A|-101010101010-777-55-44---------------|
E|--------------------------------------|

love one another
love one another
G|--------------------------------------|
D|--------------------------------------|
A|-2222220022222------------------------|
E|--------------------------------------|

so repeat verse and then chorus (two times)

OUTRO
G|--------------------------------------------------|
D|--------------------------------------------------|
A|-2-2-/-14-14-12-12-12-12-12-12-12-12-10-10-10-10--|
E|--------------------------------------------------|

G|------------------------------------------|
D|-2-/-14-----------------------------------|
A|----------------------------------------2-|
E|---------14-14-\-2-2-3-3-3-3-2-2-/-9-2----|

it ends in B, it's not hard to play, listen to the song and understand where and how you 
play the riffs... the tab works!

            
            
Suggest correction
Creating personal tab
Creating personal tab
You can edit any tab online and save it as your Personal.

You can edit, replace or remove any tab part or add personal notes – all changes will be seen only by you.

Personal tabs can be accessed anytime from any device, even offline.
Learn more »
Give kudos to tab author, rate the tab!
1 2 3 4 5
comments
print report bad tab
guest
You may want to rate the tab now too:
select rating
Wanna post a correction for this tab? Suggest correction