Oops, an error
Loading. Please wait.
We have an official Waiting For The Rapture tab made by UG professional guitarists. Check out the tab »
×
by Oasis
32,613 views 6 this week
1 commentread comment
1 2 3 4 5
x 12
add to favorites
×
Save as Personal and add changes to this tab that will be seen only by you. Learn more ›
×
You can save this tab as Personal to edit and correct it or add notes. All changes will be seen only by you. Learn more »
launch autoscroll
font size
0
reset
how to read this tab
guitar tuner
backing track
0:00
0:00
edit
Autoscroll
slow
fast
+/-
esc
set tempo
stop
Title: Waiting For The Rapture
Artist: Oasis
Album: Dig Out Your Soul

Tempo: 85 bpm

Note: Tune 6th string to D

Chords:
A5 (777xxx)
G5 (555xxx)
D5 (000xxx)
F5 (333xxx)
C5 (101010xxx)
E5 (222xxx)
D5* (121212xxx)

Intro:
  A5                   G5 
E|------------------------|
B|------------------------|
G|------------------------|
D|7-----7-----7-----7--5--|
A|7-----7-----7-----7--5--|
D|7-----7-----7-----7--5--|  X2
 
Verse 1:
A5                        G5 D5
I still don't know what I was waiting for
F5                           G5  A5    (G5 A5)
A big love to fall down from the sky
She took my hand and picked me up off the floor
She put an apple in my eye

Chorus:
           C5   G5 A5
I said I'm tired
G5   F5                     G5 A5    (G5 A5)
Come get me off the merry-go-round
    C5   G5 A5
I'm wired
G5   F5                      G5 A5    (G5)
Come feed me and then bring me down

Verse 2:
She come up to me
I can't remember what she said
Cause I was in a trance and I forgot it all
  [Riff 1]
E|------------------------|
B|7b9---------------------|
G|7b9-(9)75---------------|
D|---------7--------------|
A|------------------------|
D|------------------------|
I bet you don't know about all that
Revolution in her head
She make a lover seem so magical

Chorus:
She said I'm tired
Come get me off the merry-go-round
I'm wired
     F5
Well heaven must of sent you
   E5
To save me from the rapture... yeah

Instrumental:
                           |-----with Riff 1------|
  C5             D5*   A5                 G5    F5      
E|------------------------|------------------------|
B|------------------------|------------------------|
G|------------------------|------------------------|
D|10----10----10-12-12-7--|7-----7-----7--5--5--3--|
A|10----10----10-12-12-7--|7-----7-----7--5--5--3--|
D|10----10----10-12-12-7--|7-----7-----7--5--5--3--|
  |-----with Riff 1------|
                           C5
E|------------------------|------------------------|
B|------------------------|------------------------|
G|------------------------|------------------------|
D|3-----3-----3-----3--3--|10----10----10----10----|
A|3-----3-----3-----3--3--|10----10----10----10----|
D|3-----3-----3-----3--3--|10----10----10----10----|    X2

Chorus 2:    [Use Instrumental chords]
I'm tired
Come get me off the merry-go-round
I'm wired
Come feed me and then bring me down

Outro:
C5  F5  |C5  F5
C5  F5  |C5  F5  |C5

Outro 2:
  C5           F5          C5           F5         
E|------------------------|------------------------|
B|------------------------|------------------------|
G|------------------------|------------------------|
D|---------------------3--|---------------------3--|
A|/10-10-12p11\3--3--3----|/10-10-12p11\3--3--3----|
D|/10-10-10---\3--3--3----|/10-10-10---\3--3--3----|
  C5           F5          C5           F5   
E|------------------------|------------------------|
B|------------------------|------------------------|
G|------------------------|------------------------|
D|---------------------3--|---------------------3--|
A|/10-10-12p11\3--3--3----|/10-10-12p11\3--3--3----|
D|/10-10-10---\3--3--3----|/10-10-10---\3--3--3----|
  C5              
E|------------------------||
B|------------------------||
G|------------------------||
D|------------------------||
A|/10---------------------||
D|/10---------------------||


            
            
Suggest correction
Creating personal tab
Creating personal tab
You can edit any tab online and save it as your Personal.

You can edit, replace or remove any tab part or add personal notes – all changes will be seen only by you.

Personal tabs can be accessed anytime from any device, even offline.
Learn more »
comments
print report bad tab
1 comment total.
0 reply
ryan96skyblue 147 Jul 29, 2009 09:39 AM

Brilliant tab, I've bin tying to work this out 4 ages, I was playing normal tuning, playing everything down two frets, brilliant cheers.

guest
You may want to rate the tab now too:
select rating
Wanna post a correction for this tab? Suggest correction