Oops, an error
Loading. Please wait.

Where Did It All Go Wrong chords

version 3
version 3

Whole song

Interactive

by Oasis
3,471 views 6 this week
no commentswrite comment
1 2 3 4 5
2 more votes to show rating
add to favorites
×
Save as Personal and add changes to this tab that will be seen only by you. Learn more ›
×
You can save this tab as Personal to edit and correct it or add notes. All changes will be seen only by you. Learn more »
launch autoscroll
font size
0
reset
transpose
0
reset
simplify chords
display chords
guitar tuner
edit
Autoscroll
slow
fast
+/-
esc
set tempo
stop
Author
Difficulty
Strumming
There is no strumming pattern for this song yet. and get +5 IQ
Name: Where did it all go wrong
Band: Oasis
Album: Standing On The Shoulder's Of Gaints.
Tabbed by: Josh01993


This is for a live acoustic version of where did it all go wrong, but it also works just 
as well for the album version, (track 7 I believe on standing on the shoulders of giants)
This is my first tab, but I think its pretty well spot on, atleast when I play along to 
the video it is =0. Any corrections or comments, email me at josh-marshall93@hotmail.com
LONG LIVE OASIS!!! :D




Chords used:

Em7    020030
Dsus2  xx0230
Cadd9  x32033
Asus4  x02230


Intro
Spoken :- This is off the album, Its called where did it all go wrong, right, on four 
then, one, two, three, four

Em7  Dsus2 x 2

Verse 1

Em7                        Dsus2
You know that feeling you get,
Em7                       Dsus2
You feel your older than time.
Cadd9              Dsus2                  Em7    Dsus2
You aint exactly sure, if you've been away a while.

Verse 2

Em7                    Dsus2
Do you keep the receipts
Em7                      Dsus2
For the friends that you buy?
Cadd9               Dsus2                             A7sus4    Cadd9
And ain't it bitter sweet, you were only just getting by.

Chorus

     Em7
But I hope you know, that it won't let go,
         Dsus2                             Asus4
It sticks around with you until the day you die.
       Em7
And I hope you know, that it's touch and go,
              Dsus2                                Asus4
I hope the tears don't stain the world that waits outside.
                  Cadd9
Where did it all go wrong?

Em7  Dsus2 x 2

Verse 3

Em7              Dsus2
And until you've repaid
Em7                            Dsus2
the dreams you bought for your lies,
Cadd9           Dsus2                  Asus4
you'll be castaway, alone under stormy skies,
Cadd9              Asus4         Cadd9
alone under stormy skies.

Chorus

     Em7
But I hope you know, that it won't let go,
         Dsus2                             Asus4
It sticks around with you until the day you die.
       Em7
And I hope you know, that it's touch and go,
              Dsus2                                Asus4
I hope the tears don't stain the world that waits outside.
                   Cadd9
Where did it all go wrong?

Solo (gem), Noel I believe plays the chorus chords

-------------------------------------------------------------------|
--15b17---12v---------12h13p12---------------15b17------12v-----12-|
------------------------------14-12--------------------------------|
-------------------------------------14----------------------------|
-------------------------------------------------------------------|
-------------------------------------------------------------------|


------------------------------------------------------------------|
---20b22----17v-------15b17-----12-----------7h8p7----------------|
----------------------------------------------------9p7---7/9-----|
--------------------------------------------------------9---------|
------------------------------------------------------------------|
------------------------------------------------------------------|


----You can improvise here, but I find this the closest---|
----------------------------------------------------------|
----------------------------------------------------------|
----------------5--7bp5---5---5--7b9r----7p5---5----------|
----5-----5--7----------7---7----------------7---7-5------|
--7----7---------------------------------------------7bv--|


Outro

     Em7
But I hope you know, that it won't let go,
         Dsus2                             Asus4
It sticks around with you until the day you die.
       Em7
And I hope you know, that it's touch and go,
              Dsus2
I hope the tears don't stain the world that waits outside.

    Em7
But I hope you know, that it won't let go,
         Dsus2                             Asus4
It sticks around with you until the day you die.
       Em7
And I hope you know, that it's touch and go,
              Dsus2                                Asus4
I hope the tears don't stain the world that waits outside.
                  Cadd9
Where did it all go wrong?

            
            
Suggest correction
Creating personal tab
Creating personal tab
You can edit any tab online and save it as your Personal.

You can edit, replace or remove any tab part or add personal notes – all changes will be seen only by you.

Personal tabs can be accessed anytime from any device, even offline.
Learn more »
Give kudos to tab author, rate the tab!
1 2 3 4 5
comments
print report bad tab
guest
You may want to rate the tab now too:
select rating
Wanna post a correction for this tab? Suggest correction