Oops, an error
Loading. Please wait.
We have Chord Pro version of Hey Ya.
It's the closest thing you can get to the original song and it has interactive parts. Check out the tab »
×
184,563 views 276 this week
10 commentsread comments
1 2 3 4 5
x 12
add to favorites
×
Save as Personal and add changes to this tab that will be seen only by you. Learn more ›
×
You can save this tab as Personal to edit and correct it or add notes. All changes will be seen only by you. Learn more »
launch autoscroll
font size
0
reset
transpose
0
reset
display chords
guitar tuner
edit
Autoscroll
slow
fast
+/-
esc
set tempo
stop
Strumming
There is no strumming pattern for this song yet. and get +5 IQ
----------------------------------------------------------------
             Mat Weddle - Hey Ya (Acoustic Cover)
----------------------------------------------------------------
Tabbed by Joshua Lawrence
Email - Lostatsea124@yahoo.com

Capo on 4th Fret
Time Signature is 4/4

Key
/ = Slide Up
\ = Slide Down
x = Palm Mute
* = Thumb Tap
^ = Upstrum

Saw this video the other day and I thought Mat did an amazing job covering this song.
Most of the chords I found were pretty decent but didn't really sound 100% correct.
I'm almost positive this is what he plays


Video can be found here - http://www.youtube.com/watch?v=1ioKEDgnfs8

[Intro, Verse, Chorus]
e|---0-----0-1-----0----------------------|
B|---1-----1-1-----1--1--1----------------|
G|---0-----0-2-----0--0--2----------------|
D|---2-----3-3-----0--2--2----------------|
A|-3-3---0---------2----------------------|
E|-----------------3----------------------|

[Verse 1]
My baby don't mess around
Because she loves me so
And this I know for shooo..
Uh, But does she really wanna
But can't stand to see me
Walk out the dooor..
Don't try to fight the feelin'
Because the thought alone is killing me right nooww..
Uh, thank god for mom and dad
For sticking two together
'Cause we don't know hooowww...
UH!

Guitar 2 riff during Chorus
|--3/-5---------3/-5-----------------------|
|--------------------5-3-1-----------------|
|------------------------------------------|
|------------------------------------------|
|------------------------------------------|
|------------------------------------------|

[Chorus]
Heeeyyy... Yaaaaaaa..
Heeyy Yaaaaaaaa..
Heeeyyy... Yaaaaaaa..
Heeyy Yaaaaaaaa..
Heeeyyy... Yaaaaaaa..
Heeyy Yaaaaaaaa..
Heeeyyy... Yaaaaaaa..
Heeyy Yaaaaaaaa..

[Verse Two]
You think you've got it
Ohh, you think you've got it
But got it just don't get it
Till' there's nothing at
AaaaaaaaAAAAAAAaaaaaaAAAAAAaaaaaallllll..
We get together
Ohh, we get together
But seperate's always better when there's feelings
InvooooooOOOOOOOoooooooOOOOOOooooooOOOOOlved
If what they say is "Nothing is forever"
Then what makes, Then what makes, Then what makes
Then what makes, Then what makes LOOVVEEE?
(Love exception) So why you, why you
Why you, why you, why you are we so in denial
When we know we're not happy heeeerrreeee...
Y'all don't want me here you just wanna dance

[Chorus]
Heeeyyy... Yaaaaaaa..
Heeyy Yaaaaaaaa..
Heeeyyy... Yaaaaaaa..
Heeyy Yaaaaaaaa..
Heeeyyy... Yaaaaaaa..
Heeyy Yaaaaaaaa..
Heeeyyy... Yaaaaaaa..
Heeyy Yaaaaaaaa..

[Bridge]
Hey, alright now
Alright now fellas,
Now what's cooler than bein' cool?
I can't hear ya'
I say what's cooler than bein' cool?
Alright, alright, alright, alright
Alright, alright, alright, alright
Alright, alright, alright, alright
Alright, alright, Ok now ladies,
And we gon' break this thing down in just a few seconds
Now don't have me break this thang down for nothin'
Now I wanna see y'all on y'all baddest behavior
Lend me some suga', I am your neighbor ahh here we go!


Guitar 2 (for Breakdown)
e|------3---------------------------| Repeat as much as necessary
B|-0-h1---1-0-----------------------|
G|----------------------------------|
D|----------------------------------|
A|----------------------------------|
E|----------------------------------|


[Breakdown] (Just do single strums here with rythmic muted strumming)

Shake it, shake, shake it, shake it
Shake it, shake it, shake, shake it, shake it, shake it
Shake it, shake it like a Polaroid Picture, shake it, shake it
Shh you got to, shake it, shh shake it, shake it, got to shake it
shake it like a Poloroid Picture

[Chorus] (Return to regular pattern)
Heeeyyy... Yaaaaaaa..
Heeyy Yaaaaaaaa..
Heeeyyy... Yaaaaaaa..
Heeyy Yaaaaaaaa..
Heeeyyy... Yaaaaaaa..
Heeyy Yaaaaaaaa..
Heeeyyy... Yaaaaaaa..
Heeyy Yaaaaaaaa..

Thats about it
Have fun :)
It's really fun to play
expecially unexpectedly like at a party of show

            
            
Suggest correction
Creating personal tab
Creating personal tab
You can edit any tab online and save it as your Personal.

You can edit, replace or remove any tab part or add personal notes – all changes will be seen only by you.

Personal tabs can be accessed anytime from any device, even offline.
Learn more »
comments
print report bad tab
10 comments total. Showing first comments.
0 reply
Sash0 104 Sep 17, 2006 04:45 AM

This is what I came up with:

Outkast - Hey Ya (Obadiah Parker Acoustic Cover)

Standard Tuning.
Capo on the 4th fret.

E|----0--0--x---------0-x-0--0---0-0-x-0-------------------|
B|----1--1--x---------1-x-1--1---1-1-x-1-------------------|
G|----0--0--x-----0h2-2-x-2--0---0-0-x-0-------------------|
D|----2--2--x--2h3----3-x-3--0---2-2-x-2-------------------|
A|--3----3--x---------x-x-x--2-0---0-x-0-------------------|
E|----------x---------1-x-1--3-------x---------------------|

0 reply
AlaskanPenguin 82 Sep 18, 2006 07:58 AM

i can never do that thing with the thumb on the E though lol

0 reply
CrazyYaz 725 Oct 01, 2006 04:21 AM

Sash ur makin it complicated lol, its not that hard to play, especially with the 2h3. good job anyway, gr8 song to play

guest
You may want to rate the tab now too:
select rating
Wanna post a correction for this tab? Suggest correction