Oops, an error
Loading. Please wait.

Incarnated tab

version 1
version 1

Whole song

Interactive

by Obscura
13,420 views 9 this week
4 commentsread comments
1 2 3 4 5
x 4
add to favorites
×
Save as Personal and add changes to this tab that will be seen only by you. Learn more ›
×
You can save this tab as Personal to edit and correct it or add notes. All changes will be seen only by you. Learn more »
launch autoscroll
font size
0
reset
how to read this tab
guitar tuner
edit
Autoscroll
slow
fast
+/-
esc
set tempo
stop
(Gtr 1) - Christian Meunzner
(Gtr 2) – Steffan Kummerer

(Gtr 1)
         PM PM PM    PM     PM    PM PM    PM     PM
      E  E  E  E  E  E   E  E     E  E  E  E   E  E  E   E
D|----------------------------|----------------------------|
A|----------------------------|----------------------------|
F|----------------------------|----------------------------|
C|--12-----------------12-----|--------------12--------12--|
G|---------------9------------|--------9------------9------|
D|------7--7--7-----7------7--|--7--7-----7------7---------|
                                                            
(Gtr 2)                                                                                                       
D|----------------------------|----------------------------|
A|----------------------------|----------------------------|
F|----------------------------|----------------------------|
C|----------------------------|----------------------------|
G|----------------------------|----------------------------|
D|----------------------------|----------------------------|

        PM PM PM    PM     PM    PM PM
     E  E  E  E  E  E   E  E     E  E   E  E  E  E
D|----------------------------|---------------------|
A|----------------------------|---------------------|
F|----------------------------|---------------------|
C|--11-----------------11-----|--------11--9--8--9--|
G|---------------9------------|---------------------|
D|------7--7--7-----7------7--|--7--7---------------|
                                                  
                                 Q      E  E  E  E  |
D|----------------------------|---------------------|
A|----------------------------|---------------------|
F|----------------------------|---------------------|
C|----------------------------|--------11--9--8--9--|
G|----------------------------|---------------------|
D|----------------------------|---------------------|

       PM PM PM PM PM PM PM PM PM PM PM PM PM PM
    E  S  S  S  S  S  S  S  S  S  S  S  S  S  S
D|-----------------------------------------------|
A|-----------------------------------------------|
F|-----------------------------------------------|
C|--7--------------------------------------------|
G|-----------------------------------------------|
D|-----3--3--3--3--3--3--3--3--3--3--3--3--3--3--|
                                               
       PM PM PM PM PM PM PM PM PM PM PM PM PM PM |
    E  S  S  S  S  S  S  S  S  S  S  S  S  S  S  |
D|-----------------------------------------------|
A|-----------------------------------------------|
F|-----------------------------------------------|
C|--7--------------------------------------------|
G|-----------------------------------------------|
D|-----3--3--3--3--3--3--3--3--3--3--3--3--3--3--|

       PM PM PM PM PM PM
    E  S  S  S  S  S  S  E  S S S S S S
D|--------------------------------------|
A|--------------------------------------|
F|--------------------------------------|
C|-----------------------7--------------|
G|--5-----------------------------------|
D|-----3--3--3--3--3--3-----3-3-3-3-3-3-|
                                      
       PM PM PM PM PM PM                |
    E  S  S  S  S  S  S  E  S S S S S S |
D|--------------------------------------|
A|--------------------------------------|
F|--------------------------------------|
C|-----------------------7--------------|
G|--5-----------------------------------|
D|-----3--3--3--3--3--3-----3-3-3-3-3-3-|

       PM PM PM PM PM PM PM PM PM PM PM PM PM PM
    E  S  S  S  S  S  S  S  S  S  S  S  S  S  S
D|-----------------------------------------------|
A|-----------------------------------------------|
F|-----------------------------------------------|
C|--5--------------------------------------------|
G|-----7--7--7--7--7--7--7--7--7--7--7--7--7--7--|
D|-----------------------------------------------|
                                               
       PM PM PM PM PM PM PM PM PM PM PM PM PM PM |
    E  S  S  S  S  S  S  S  S  S  S  S  S  S  S  |
D|-----------------------------------------------|
A|-----------------------------------------------|
F|-----------------------------------------------|
C|--5--------------------------------------------|
G|-----7--7--7--7--7--7--7--7--7--7--7--7--7--7--|
D|-----------------------------------------------|

       PM PM PM PM PM PM                    PM PM PM    PM     PM
    E  S  S  S  S  S  S  E  E  E  E      E  E  E  E  E  E   E  E
D|-----------------------------------|----------------------------|
A|-----------------------------------|----------------------------|
F|-----------------------------------|----------------------------|
C|--4--------------------7--5--4--5--|--12-----------------12-----|
G|-----5--5--5--5--5--5--------------|---------------9------------|
D|-----------------------------------|------7--7--7-----7------7--|
                                                                
       PM PM PM PM PM PM                    PM PM PM    PM     PM |
    E  S  S  S  S  S  S  E  E  E  E      E  E  E  E  E  E   E  E  |
D|-----------------------------------|----------------------------|
A|-----------------------------------|----------------------------|
F|-----------------------------------|----------------------------|
C|--4--------------------7--5--4--5--|--12-----------------12-----|
G|-----5--5--5--5--5--5--------------|---------------9------------|
D|-----------------------------------|------7--7--7-----7------7--|

        PM PM PM    PM     PM    PM PM    PM     PM
     E  E  E  E  E  E   E  E     E  E  E  E   E  E  E   E
D|----------------------------|----------------------------|
A|----------------------------|----------------------------|
F|----------------------------|----------------------------|
C|--12-----------------12-----|--------------12--------12--|
G|---------------9------------|--------9------------9------|
D|------7--7--7-----7------7--|--7--7-----7------7---------|
                                                          
        PM PM PM    PM     PM    PM PM    PM     PM        |
     E  E  E  E  E  E   E  E     E  E  E  E   E  E  E   E  |
D|----------------------------|----------------------------|
A|----------------------------|----------------------------|
F|----------------------------|----------------------------|
C|--12-----------------12-----|--------------12--------12--|
G|---------------9------------|--------9------------9------|
D|------7--7--7-----7------7--|--7--7-----7------7---------|

    PM PM
    E  E   E  E  E  E
D|---------------------|
A|---------------------|
F|---------------------|
C|--------11--9--8--9--|
G|---------------------|
D|--7--7---------------|
                      
    PM PM              |
    E  E   E  E  E  E  |
D|---------------------|
A|---------------------|
F|---------------------|
C|--------11--9--8--9--|
G|---------------------|
D|--7--7---------------|

       PM PM PM PM PM PM PM PM PM PM PM PM PM PM
    E  S  S  S  S  S  S  S  S  S  S  S  S  S  S
D|-----------------------------------------------|
A|-----------------------------------------------|
F|-----------------------------------------------|
C|--7--------------------------------------------|
G|-----------------------------------------------|
D|-----3--3--3--3--3--3--3--3--3--3--3--3--3--3--|
                                               
       PM PM PM PM PM PM PM PM PM PM PM PM PM PM |
    E  S  S  S  S  S  S  S  S  S  S  S  S  S  S  |
D|-----------------------------------------------|
A|-----------------------------------------------|
F|-----------------------------------------------|
C|--7--------------------------------------------|
G|-----------------------------------------------|
D|-----3--3--3--3--3--3--3--3--3--3--3--3--3--3--|

       PM PM PM PM PM PM
    E  S  S  S  S  S  S  E  S S S S S S
D|--------------------------------------|
A|--------------------------------------|
F|--------------------------------------|
C|-----------------------7--------------|
G|--5-----------------------------------|
D|-----3--3--3--3--3--3-----3-3-3-3-3-3-|
                                      
       PM PM PM PM PM PM                |
    E  S  S  S  S  S  S  E  S S S S S S |
D|--------------------------------------|
A|--------------------------------------|
F|--------------------------------------|
C|-----------------------7--------------|
G|--5-----------------------------------|
D|-----3--3--3--3--3--3-----3-3-3-3-3-3-|

       PM PM PM PM PM PM PM PM PM PM PM PM PM PM
    E  S  S  S  S  S  S  S  S  S  S  S  S  S  S
D|-----------------------------------------------|
A|-----------------------------------------------|
F|-----------------------------------------------|
C|--5--------------------------------------------|
G|-----7--7--7--7--7--7--7--7--7--7--7--7--7--7--|
D|-----------------------------------------------|
                                               
       PM PM PM PM PM PM PM PM PM PM PM PM PM PM |
    E  S  S  S  S  S  S  S  S  S  S  S  S  S  S  |
D|-----------------------------------------------|
A|-----------------------------------------------|
F|-----------------------------------------------|
C|--5--------------------------------------------|
G|-----7--7--7--7--7--7--7--7--7--7--7--7--7--7--|
D|-----------------------------------------------|

       PM PM PM PM PM PM                 PM  PM PM  PM
    E  S  S  S  S  S  S   E   E  E   E   E   E  E   E
D|-----------------------------------------------------|
A|-----------------------------------------------------|
F|-----------------------------------------------------|
C|--4---------------------7---5--4---5-----------------|
G|-----5--5--5--5--5--5------------------7---5--4---5--|
D|-----------------------------------------------------|
                                                     
       PM PM PM PM PM PM                 PM  PM PM  PM |
    E  S  S  S  S  S  S   E   E  E   E   E   E  E   E  |
D|-----------------------------------------------------|
A|-----------------------------------------------------|
F|-----------------------------------------------------|
C|--4--------------------12--10--9--10-----------------|
G|-----5--5--5--5--5--5-----------------12--10--9--10--|
D|-----------------------------------------------------|

        PM PM PM PM PM PM PM PM PM PM PM PM PM PM
     E  S  S  S  S  S  S  S  S  S  S  S  S  S  S
D|------------------------------------------------|
A|------------------------------------------------|
F|------------------------------------------------|
C|------------------------------------------------|
G|--10--------------------------------------------|
D|------7--7--7--7--7--7--7--7--7--7--7--7--7--7--|
                                                
        PM PM PM PM PM PM PM PM PM PM PM PM PM PM |
     E  S  S  S  S  S  S  S  S  S  S  S  S  S  S  |
D|------------------------------------------------|
A|------------------------------------------------|
F|------------------------------------------------|
C|------------------------------------------------|
G|--10--------------------------------------------|
D|------7--7--7--7--7--7--7--7--7--7--7--7--7--7--|

       PM PM PM PM PM PM     PM PM PM PM PM PM
    E  S  S  S  S  S  S   E  S  S  S  S  S  S
D|---------------------------------------------|
A|---------------------------------------------|
F|---------------------------------------------|
C|---------------------------------------------|
G|--9--------------------10--------------------|
D|-----7--7--7--7--7--7------7--7--7--7--7--7--|
                                             
       PM PM PM PM PM PM     PM PM PM PM PM PM |
    E  S  S  S  S  S  S   E  S  S  S  S  S  S  |
D|---------------------------------------------|
A|---------------------------------------------|
F|---------------------------------------------|
C|---------------------------------------------|
G|--9--------------------10--------------------|
D|-----7--7--7--7--7--7------7--7--7--7--7--7--|

       PM PM PM PM PM PM PM PM PM PM PM PM PM PM
    E  S  S  S  S  S  S  S  S  S  S  S  S  S  S
D|-----------------------------------------------|
A|-----------------------------------------------|
F|-----------------------------------------------|
C|-----------------------------------------------|
G|--8--------------------------------------------|
D|-----6--6--6--6--6--6--6--6--6--6--6--6--6--6--|
                                               
       PM PM PM PM PM PM PM PM PM PM PM PM PM PM |
    E  S  S  S  S  S  S  S  S  S  S  S  S  S  S  |
D|-----------------------------------------------|
A|-----------------------------------------------|
F|-----------------------------------------------|
C|-----------------------------------------------|
G|--8--------------------------------------------|
D|-----6--6--6--6--6--6--6--6--6--6--6--6--6--6--|

    PM PM PM PM PM PM PM PM PM PM PM PM PM PM PM PM
    S  S  S  S  S  S  S  S  S  S  S  S  S  S  S  S
D|--------------------------------------------------|
A|--------------------------------------------------|
F|--------------------------------------------------|
C|--------------------------------------------------|
G|--9--9--9--9--8--8--8--8--6--6--6--6--4--4--4--4--|
D|--------------------------------------------------|
                                                  
    PM PM PM PM PM PM PM PM PM PM PM PM PM PM PM PM |
    S  S  S  S  S  S  S  S  S  S  S  S  S  S  S  S  |
D|--------------------------------------------------|
A|--------------------------------------------------|
F|--------------------------------------------------|
C|--------------------------------------------------|
G|--9--9--9--9--8--8--8--8--6--6--6--6--4--4--4--4--|
D|--------------------------------------------------|

       PM PM PM PM PM PM PM PM PM PM PM PM PM PM
    E  S  S  S  S  S  S  S  S  S  S  S  S  S  S
D|-----------------------------------------------|
A|-----------------------------------------------|
F|-----------------------------------------------|
C|-----------------------------------------------|
G|--6--------------------------------------------|
D|-----3--3--3--3--3--3--3--3--3--3--3--3--3--3--|
                                               
       PM PM PM PM PM PM PM PM PM PM PM PM PM PM |
    E  S  S  S  S  S  S  S  S  S  S  S  S  S  S  |
D|-----------------------------------------------|
A|-----------------------------------------------|
F|-----------------------------------------------|
C|-----------------------------------------------|
G|--6--------------------------------------------|
D|-----3--3--3--3--3--3--3--3--3--3--3--3--3--3--|

       PM PM PM PM PM PM    PM PM PM PM PM PM
    E  S  S  S  S  S  S  E  S  S  S  S  S  S
D|--------------------------------------------|
A|--------------------------------------------|
F|--------------------------------------------|
C|--------------------------------------------|
G|--5--------------------6--------------------|
D|-----3--3--3--3--3--3-----3--3--3--3--3--3--|
                                            
       PM PM PM PM PM PM    PM PM PM PM PM PM |
    E  S  S  S  S  S  S  E  S  S  S  S  S  S  |
D|--------------------------------------------|
A|--------------------------------------------|
F|--------------------------------------------|
C|--------------------------------------------|
G|--5--------------------6--------------------|
D|-----3--3--3--3--3--3-----3--3--3--3--3--3--|

       PM PM PM PM PM PM PM PM PM PM PM PM PM PM
    E  S  S  S  S  S  S  S  S  S  S  S  S  S  S
D|-----------------------------------------------|
A|-----------------------------------------------|
F|-----------------------------------------------|
C|-----------------------------------------------|
G|--5--------------------------------------------|
D|-----2--2--2--2--2--2--2--2--2--2--2--2--2--2--|
                                               
       PM PM PM PM PM PM PM PM PM PM PM PM PM PM |
    E  S  S  S  S  S  S  S  S  S  S  S  S  S  S  |
D|-----------------------------------------------|
A|-----------------------------------------------|
F|-----------------------------------------------|
C|-----------------------------------------------|
G|--5--------------------------------------------|
D|-----2--2--2--2--2--2--2--2--2--2--2--2--2--2--|

    PM PM PM PM PM PM PM PM PM PM PM PM PM PM PM PM
    S  S  S  S  S  S  S  S  S  S  S  S  S  S  S  S
D|--------------------------------------------------|
A|--------------------------------------------------|
F|--------------------------------------------------|
C|--------------------------------------------------|
G|--5--5--5--5--4--4--4--4--2--2--2--2--0--0--0--0--|
D|--------------------------------------------------|
                                                  
    PM PM PM PM PM PM PM PM PM PM PM PM PM PM PM PM |
    S  S  S  S  S  S  S  S  S  S  S  S  S  S  S  S  |
D|--------------------------------------------------|
A|--------------------------------------------------|
F|--------------------------------------------------|
C|--------------------------------------------------|
G|--5--5--5--5--4--4--4--4--2--2--2--2--0--0--0--0--|
D|--------------------------------------------------|

        PM PM PM     PM     PM    PM PM     PM     PM
     E  E  E  E   E  E   E  E     E  E   E  E   E  E   E   E
D|-----------------------------|------------------------------|
A|-----------------------------|------------------------------|
F|-----------------------------|------------------------------|
C|--12-----------11-----12-----|--------11-----12-----11--12--|
G|-----------------------------|------------------------------|
D|------7--7--7------7------7--|--7--7------7------7----------|
                                                            
        PM PM PM     PM     PM    PM PM     PM     PM         |
     E  E  E  E   E  E   E  E     E  E   E  E   E  E   E   E  |
D|-----------------------------|------------------------------|
A|-----------------------------|------------------------------|
F|-----------------------------|------------------------------|
C|-----------------------------|------------------------------|
G|--10------------9-----10-----|---------9-----10------9--10--|
D|------7--7--7------7------7--|--7--7------7------7----------|

        PM PM PM     PM     PM    PM PM
     E  E  E  E   E  E   E  E     E  E   E   E  E   E
D|-----------------------------|-----------------------|
A|-----------------------------|-----------------------|
F|-----------------------------|-----------------------|
C|--11-----------10-----11-----|--------11--10--8--10--|
G|-----------------------------|-----------------------|
D|------6--6--6------6------6--|--6--6-----------------|
                                                     
        PM PM PM     PM     PM    PM PM                |
     E  E  E  E   E  E   E  E     E  E   E   E  E   E  |
D|-----------------------------|-----------------------|
A|-----------------------------|-----------------------|
F|-----------------------------|-----------------------|
C|-----------------------------|-----------------------|
G|---9------------8------9-----|---------9---8--6---8--|
D|------6--6--6------6------6--|--6--6-----------------|

       PM PM PM    PM    PM    PM PM    PM    PM
    E  E  E  E  E  E  E  E     E  E  E  E  E  E  E  E
D|--------------------------|--------------------------|
A|--------------------------|--------------------------|
F|--------------------------|--------------------------|
C|--8-----------7-----8-----|--------7-----8-----7--8--|
G|--------------------------|--------------------------|
D|-----3--3--3-----3-----3--|--3--3-----3-----3--------|
                                                     
       PM PM PM    PM    PM    PM PM    PM    PM       |
    E  E  E  E  E  E  E  E     E  E  E  E  E  E  E  E  |
D|--------------------------|--------------------------|
A|--------------------------|--------------------------|
F|--------------------------|--------------------------|
C|--------------------------|--------------------------|
G|--6-----------5-----6-----|--------5-----6-----5--6--|
D|-----3--3--3-----3-----3--|--3--3-----3-----3--------|

       PM PM PM    PM    PM    PM PM
    E  E  E  E  E  E  E  E     E  E  E  E  E  E
D|--------------------------|--------------------|
A|--------------------------|--------------------|
F|--------------------------|--------------------|
C|--7-----------6-----7-----|--------7--6--4--6--|
G|--------------------------|--------------------|
D|-----2--2--2-----2-----2--|--2--2--------------|
                                               
       PM PM PM    PM    PM    PM PM             |
    E  E  E  E  E  E  E  E     E  E  E  E  E  E  |
D|--------------------------|--------------------|
A|--------------------------|--------------------|
F|--------------------------|--------------------|
C|--------------------------|--------------------|
G|--5-----------4-----5-----|--------5--4--2--4--|
D|-----2--2--2-----2-----2--|--2--2--------------|

    PM PM PM PM PM PM PM PM PM PM PM PM PM PM PM PM
    S  S  S  S  S  S  S  S  S  S  S  S  S  S  S  S
D|--------------------------------------------------|
A|--------------------------------------------------|
F|--------------------------------------------------|
C|--------------------------------------------------|
G|--------------------------------------------------|
D|--7--7--7--7--7--7--7--7--7--7--7--7--7--7--7--7--|
                                                  
    PM PM PM PM PM PM PM PM PM PM PM PM PM PM PM PM |
    S  S  S  S  S  S  S  S  S  S  S  S  S  S  S  S  |
D|--------------------------------------------------|
A|--------------------------------------------------|
F|--------------------------------------------------|
C|--------------------------------------------------|
G|--------------------------------------------------|
D|--7--7--7--7--7--7--7--7--7--7--7--7--7--7--7--7--|

    PM PM PM PM PM PM PM PM
    S  S  S  S  S  S  S  S  Q    Q
D|------------------------------------|
A|------------------------------------|
F|------------------------------------|
C|--------------------------9----9----|
G|--------------------------9----9----|
D|--7--7--7--7--7--7--7--7--7----7----|
                                    
    PM PM PM PM PM PM PM PM           |
    S  S  S  S  S  S  S  S  Q    Q    |
D|------------------------------------|
A|------------------------------------|
F|------------------------------------|
C|--------------------------9----9----|
G|--------------------------9----9----|
D|--7--7--7--7--7--7--7--7--7----7----|

    PM PM PM PM PM PM PM PM PM PM PM PM PM PM PM PM
    S  S  S  S  S  S  S  S  S  S  S  S  S  S  S  S
D|--------------------------------------------------|
A|--------------------------------------------------|
F|--------------------------------------------------|
C|--------------------------------------------------|
G|--------------------------------------------------|
D|--6--6--6--6--6--6--6--6--6--6--6--6--6--6--6--6--|
                                                  
    PM PM PM PM PM PM PM PM PM PM PM PM PM PM PM PM |
    S  S  S  S  S  S  S  S  S  S  S  S  S  S  S  S  |
D|--------------------------------------------------|
A|--------------------------------------------------|
F|--------------------------------------------------|
C|--------------------------------------------------|
G|--------------------------------------------------|
D|--6--6--6--6--6--6--6--6--6--6--6--6--6--6--6--6--|

    PM PM PM PM PM PM PM PM
    S  S  S  S  S  S  S  S  Q    Q
D|------------------------------------|
A|------------------------------------|
F|------------------------------------|
C|--------------------------8----8----|
G|--------------------------8----8----|
D|--6--6--6--6--6--6--6--6--6----6----|
                                    
    PM PM PM PM PM PM PM PM           |
    S  S  S  S  S  S  S  S  Q    Q    |
D|------------------------------------|
A|------------------------------------|
F|------------------------------------|
C|--------------------------8----8----|
G|--------------------------8----8----|
D|--6--6--6--6--6--6--6--6--6----6----|

    PM PM PM PM PM PM PM PM PM PM PM PM PM PM PM PM
    S  S  S  S  S  S  S  S  S  S  S  S  S  S  S  S
D|--------------------------------------------------|
A|--------------------------------------------------|
F|--------------------------------------------------|
C|--------------------------------------------------|
G|--------------------------------------------------|
D|--7--7--7--7--7--7--7--7--7--7--7--7--7--7--7--7--|
                                                  
    PM PM PM PM PM PM PM PM PM PM PM PM PM PM PM PM |
    S  S  S  S  S  S  S  S  S  S  S  S  S  S  S  S  |
D|--------------------------------------------------|
A|--------------------------------------------------|
F|--------------------------------------------------|
C|--------------------------------------------------|
G|--------------------------------------------------|
D|--7--7--7--7--7--7--7--7--7--7--7--7--7--7--7--7--|

    PM PM PM PM PM PM PM PM
    S  S  S  S  S  S  S  S  Q    Q
D|------------------------------------|
A|------------------------------------|
F|------------------------------------|
C|--------------------------9----9----|
G|--------------------------9----9----|
D|--7--7--7--7--7--7--7--7--7----7----|
                                    
    PM PM PM PM PM PM PM PM           |
    S  S  S  S  S  S  S  S  Q    Q    |
D|------------------------------------|
A|------------------------------------|
F|------------------------------------|
C|--------------------------9----9----|
G|--------------------------9----9----|
D|--7--7--7--7--7--7--7--7--7----7----|

    PM PM PM PM PM PM PM PM PM PM PM PM PM PM PM PM
    S  S  S  S  S  S  S  S  S  S  S  S  S  S  S  S
D|--------------------------------------------------|
A|--------------------------------------------------|
F|--------------------------------------------------|
C|--------------------------------------------------|
G|--------------------------------------------------|
D|--6--6--6--6--6--6--6--6--6--6--6--6--6--6--6--6--|
                                                  
    PM PM PM PM PM PM PM PM PM PM PM PM PM PM PM PM |
    S  S  S  S  S  S  S  S  S  S  S  S  S  S  S  S  |
D|--------------------------------------------------|
A|--------------------------------------------------|
F|--------------------------------------------------|
C|--------------------------------------------------|
G|--------------------------------------------------|
D|--6--6--6--6--6--6--6--6--6--6--6--6--6--6--6--6--|

    PM PM PM PM PM PM PM PM
    S  S  S  S  S  S  S  S  Q    Q
D|------------------------------------|
A|------------------------------------|
F|------------------------------------|
C|--------------------------8----8----|
G|--------------------------8----8----|
D|--6--6--6--6--6--6--6--6--6----6----|
                                    
    PM PM PM PM PM PM PM PM           |
    S  S  S  S  S  S  S  S  Q    Q    |
D|------------------------------------|
A|------------------------------------|
F|------------------------------------|
C|--------------------------8----8----|
G|--------------------------8----8----|
D|--6--6--6--6--6--6--6--6--6----6----|

    PM PM PM PM PM PM PM PM PM PM PM PM PM PM PM PM
    S  S  S  S  S  S  S  S  S  S  S  S  S  S  S  S
D|--------------------------------------------------|
A|--------------------------------------------------|
F|--------------------------------------------------|
C|--------------------------------------------------|
G|--------------------------------------------------|
D|--7--7--7--7--7--7--7--7--7--7--7--7--7--7--7--7--|
                                                  
    PM PM PM PM PM PM PM PM PM PM PM PM PM PM PM PM |
    S  S  S  S  S  S  S  S  S  S  S  S  S  S  S  S  |
D|--------------------------------------------------|
A|--------------------------------------------------|
F|--------------------------------------------------|
C|--------------------------------------------------|
G|--------------------------------------------------|
D|--7--7--7--7--7--7--7--7--7--7--7--7--7--7--7--7--|

    PM PM PM PM PM PM PM PM
    S  S  S  S  S  S  S  S  Q    Q
D|------------------------------------|
A|------------------------------------|
F|------------------------------------|
C|--------------------------9----9----|
G|--------------------------9----9----|
D|--7--7--7--7--7--7--7--7--7----7----|
                                    
    PM PM PM PM PM PM PM PM           |
    S  S  S  S  S  S  S  S  Q    Q    |
D|------------------------------------|
A|------------------------------------|
F|------------------------------------|
C|--------------------------9----9----|
G|--------------------------9----9----|
D|--7--7--7--7--7--7--7--7--7----7----|

    PM PM PM PM PM PM PM PM PM PM PM PM PM PM PM PM
    S  S  S  S  S  S  S  S  S  S  S  S  S  S  S  S
D|--------------------------------------------------|
A|--------------------------------------------------|
F|--------------------------------------------------|
C|--------------------------------------------------|
G|--------------------------------------------------|
D|--6--6--6--6--6--6--6--6--6--6--6--6--6--6--6--6--|
                                                  
    PM PM PM PM PM PM PM PM PM PM PM PM PM PM PM PM |
    S  S  S  S  S  S  S  S  S  S  S  S  S  S  S  S  |
D|--------------------------------------------------|
A|--------------------------------------------------|
F|--------------------------------------------------|
C|--------------------------------------------------|
G|--------------------------------------------------|
D|--6--6--6--6--6--6--6--6--6--6--6--6--6--6--6--6--|

    PM PM PM PM PM PM PM PM
    S  S  S  S  S  S  S  S  Q    Q
D|------------------------------------|
A|------------------------------------|
F|------------------------------------|
C|--------------------------8----8----|
G|--------------------------8----8----|
D|--6--6--6--6--6--6--6--6--6----6----|
                                    
    PM PM PM PM PM PM PM PM           |
    S  S  S  S  S  S  S  S  Q    Q    |
D|------------------------------------|
A|------------------------------------|
F|------------------------------------|
C|--------------------------8----8----|
G|--------------------------8----8----|
D|--6--6--6--6--6--6--6--6--6----6----|

    PM PM PM PM PM PM PM PM PM PM PM PM PM PM PM PM
    S  S  S  S  S  S  S  S  S  S  S  S  S  S  S  S
D|--------------------------------------------------|
A|--------------------------------------------------|
F|--------------------------------------------------|
C|--------------------------------------------------|
G|--------------------------------------------------|
D|--7--7--7--7--7--7--7--7--7--7--7--7--7--7--7--7--|
                                                  
    PM PM PM PM PM PM PM PM PM PM PM PM PM PM PM PM |
    S  S  S  S  S  S  S  S  S  S  S  S  S  S  S  S  |
D|--------------------------------------------------|
A|--------------------------------------------------|
F|--------------------------------------------------|
C|--------------------------------------------------|
G|--------------------------------------------------|
D|--7--7--7--7--7--7--7--7--7--7--7--7--7--7--7--7--|

    PM PM PM PM PM PM PM PM
    S  S  S  S  S  S  S  S  Q    Q
D|------------------------------------|
A|------------------------------------|
F|------------------------------------|
C|--------------------------9----9----|
G|--------------------------9----9----|
D|--7--7--7--7--7--7--7--7--7----7----|
                                    
    PM PM PM PM PM PM PM PM           |
    S  S  S  S  S  S  S  S  Q    Q    |
D|------------------------------------|
A|------------------------------------|
F|------------------------------------|
C|--------------------------9----9----|
G|--------------------------9----9----|
D|--7--7--7--7--7--7--7--7--7----7----|

    PM PM PM PM PM PM PM PM PM PM PM PM PM PM PM PM
    S  S  S  S  S  S  S  S  S  S  S  S  S  S  S  S
D|--------------------------------------------------|
A|--------------------------------------------------|
F|--------------------------------------------------|
C|--------------------------------------------------|
G|--------------------------------------------------|
D|--6--6--6--6--6--6--6--6--6--6--6--6--6--6--6--6--|
                                                  
    PM PM PM PM PM PM PM PM PM PM PM PM PM PM PM PM |
    S  S  S  S  S  S  S  S  S  S  S  S  S  S  S  S  |
D|--------------------------------------------------|
A|--------------------------------------------------|
F|--------------------------------------------------|
C|--------------------------------------------------|
G|--------------------------------------------------|
D|--6--6--6--6--6--6--6--6--6--6--6--6--6--6--6--6--|

    PM PM PM PM PM PM PM PM
    S  S  S  S  S  S  S  S  Q    Q
D|------------------------------------|
A|------------------------------------|
F|------------------------------------|
C|--------------------------8----8----|
G|--------------------------8----8----|
D|--6--6--6--6--6--6--6--6--6----6----|
                                    
    PM PM PM PM PM PM PM PM           |
    S  S  S  S  S  S  S  S  Q    Q    |
D|------------------------------------|
A|------------------------------------|
F|------------------------------------|
C|--------------------------8----8----|
G|--------------------------8----8----|
D|--6--6--6--6--6--6--6--6--6----6----|

        PM PM PM    PM     PM    PM PM    PM     PM
     E  E  E  E  E  E   E  E     E  E  E  E   E  E  E   E
D|----------------------------|----------------------------|
A|----------------------------|----------------------------|
F|----------------------------|----------------------------|
C|--12-----------------12-----|--------------12--------12--|
G|---------------9------------|--------9------------9------|
D|------7--7--7-----7------7--|--7--7-----7------7---------|
                                                          
        PM PM PM    PM     PM    PM PM    PM     PM        |
     E  E  E  E  E  E   E  E     E  E  E  E   E  E  E   E  |
D|----------------------------|----------------------------|
A|----------------------------|----------------------------|
F|----------------------------|----------------------------|
C|--12-----------------12-----|--------------12--------12--|
G|---------------9------------|--------9------------9------|
D|------7--7--7-----7------7--|--7--7-----7------7---------|

        PM PM PM    PM     PM    PM PM
     E  E  E  E  E  E   E  E     E  E   E  E  E  E
D|----------------------------|---------------------|
A|----------------------------|---------------------|
F|----------------------------|---------------------|
C|--11-----------------11-----|--------11--9--8--9--|
G|---------------9------------|---------------------|
D|------7--7--7-----7------7--|--7--7---------------|
                                                  
        PM PM PM    PM     PM    PM PM              |
     E  E  E  E  E  E   E  E     E  E   E  E  E  E  |
D|----------------------------|---------------------|
A|----------------------------|---------------------|
F|----------------------------|---------------------|
C|--11-----------------11-----|--------11--9--8--9--|
G|---------------9------------|---------------------|
D|------7--7--7-----7------7--|--7--7---------------|

       PM PM PM PM PM PM PM PM PM PM PM PM PM PM
    E  S  S  S  S  S  S  S  S  S  S  S  S  S  S
D|-----------------------------------------------|
A|-----------------------------------------------|
F|-----------------------------------------------|
C|--7--------------------------------------------|
G|-----------------------------------------------|
D|-----3--3--3--3--3--3--3--3--3--3--3--3--3--3--|
                                               
       PM PM PM PM PM PM PM PM PM PM PM PM PM PM |
    E  S  S  S  S  S  S  S  S  S  S  S  S  S  S  |
D|-----------------------------------------------|
A|-----------------------------------------------|
F|-----------------------------------------------|
C|--7--------------------------------------------|
G|-----------------------------------------------|
D|-----3--3--3--3--3--3--3--3--3--3--3--3--3--3--|

       PM PM PM PM PM PM
    E  S  S  S  S  S  S  E  S S S S S S
D|--------------------------------------|
A|--------------------------------------|
F|--------------------------------------|
C|-----------------------7--------------|
G|--5-----------------------------------|
D|-----3--3--3--3--3--3-----3-3-3-3-3-3-|
                                      
       PM PM PM PM PM PM                |
    E  S  S  S  S  S  S  E  S S S S S S |
D|--------------------------------------|
A|--------------------------------------|
F|--------------------------------------|
C|-----------------------7--------------|
G|--5-----------------------------------|
D|-----3--3--3--3--3--3-----3-3-3-3-3-3-|

       PM PM PM PM PM PM PM PM PM PM PM PM PM PM
    E  S  S  S  S  S  S  S  S  S  S  S  S  S  S
D|-----------------------------------------------|
A|-----------------------------------------------|
F|-----------------------------------------------|
C|--5--------------------------------------------|
G|-----7--7--7--7--7--7--7--7--7--7--7--7--7--7--|
D|-----------------------------------------------|
                                               
       PM PM PM PM PM PM PM PM PM PM PM PM PM PM |
    E  S  S  S  S  S  S  S  S  S  S  S  S  S  S  |
D|-----------------------------------------------|
A|-----------------------------------------------|
F|-----------------------------------------------|
C|--5--------------------------------------------|
G|-----7--7--7--7--7--7--7--7--7--7--7--7--7--7--|
D|-----------------------------------------------|

       PM PM PM PM PM PM                    PM PM PM    PM     PM
    E  S  S  S  S  S  S  E  E  E  E      E  E  E  E  E  E   E  E
D|-----------------------------------|----------------------------|
A|-----------------------------------|----------------------------|
F|-----------------------------------|----------------------------|
C|--4--------------------7--5--4--5--|--12-----------------12-----|
G|-----5--5--5--5--5--5--------------|---------------9------------|
D|-----------------------------------|------7--7--7-----7------7--|
                                                                
       PM PM PM PM PM PM                    PM PM PM    PM     PM |
    E  S  S  S  S  S  S  E  E  E  E      E  E  E  E  E  E   E  E  |
D|-----------------------------------|----------------------------|
A|-----------------------------------|----------------------------|
F|-----------------------------------|----------------------------|
C|--4--------------------7--5--4--5--|--12-----------------12-----|
G|-----5--5--5--5--5--5--------------|---------------9------------|
D|-----------------------------------|------7--7--7-----7------7--|

        PM PM PM    PM     PM    PM PM    PM     PM
     E  E  E  E  E  E   E  E     E  E  E  E   E  E  E   E
D|----------------------------|----------------------------|
A|----------------------------|----------------------------|
F|----------------------------|----------------------------|
C|--12-----------------12-----|--------------12--------12--|
G|---------------9------------|--------9------------9------|
D|------7--7--7-----7------7--|--7--7-----7------7---------|
                                                          
        PM PM PM    PM     PM    PM PM    PM     PM        |
     E  E  E  E  E  E   E  E     E  E  E  E   E  E  E   E  |
D|----------------------------|----------------------------|
A|----------------------------|----------------------------|
F|----------------------------|----------------------------|
C|--12-----------------12-----|--------------12--------12--|
G|---------------9------------|--------9------------9------|
D|------7--7--7-----7------7--|--7--7-----7------7---------|

    PM PM
    E  E   E  E  E  E
D|---------------------|
A|---------------------|
F|---------------------|
C|--------11--9--8--9--|
G|---------------------|
D|--7--7---------------|
                      
    PM PM              |
    E  E   E  E  E  E  |
D|---------------------|
A|---------------------|
F|---------------------|
C|--------11--9--8--9--|
G|---------------------|
D|--7--7---------------|

       PM PM PM PM PM PM PM PM PM PM PM PM PM PM
    E  S  S  S  S  S  S  S  S  S  S  S  S  S  S
D|-----------------------------------------------|
A|-----------------------------------------------|
F|-----------------------------------------------|
C|--7--------------------------------------------|
G|-----------------------------------------------|
D|-----3--3--3--3--3--3--3--3--3--3--3--3--3--3--|
                                               
       PM PM PM PM PM PM PM PM PM PM PM PM PM PM |
    E  S  S  S  S  S  S  S  S  S  S  S  S  S  S  |
D|-----------------------------------------------|
A|-----------------------------------------------|
F|-----------------------------------------------|
C|--7--------------------------------------------|
G|-----------------------------------------------|
D|-----3--3--3--3--3--3--3--3--3--3--3--3--3--3--|

       PM PM PM PM PM PM
    E  S  S  S  S  S  S  E  S S S S S S
D|--------------------------------------|
A|--------------------------------------|
F|--------------------------------------|
C|-----------------------7--------------|
G|--5-----------------------------------|
D|-----3--3--3--3--3--3-----3-3-3-3-3-3-|
                                      
       PM PM PM PM PM PM                |
    E  S  S  S  S  S  S  E  S S S S S S |
D|--------------------------------------|
A|--------------------------------------|
F|--------------------------------------|
C|-----------------------7--------------|
G|--5-----------------------------------|
D|-----3--3--3--3--3--3-----3-3-3-3-3-3-|

       PM PM PM PM PM PM PM PM PM PM PM PM PM PM
    E  S  S  S  S  S  S  S  S  S  S  S  S  S  S
D|-----------------------------------------------|
A|-----------------------------------------------|
F|-----------------------------------------------|
C|--5--------------------------------------------|
G|-----7--7--7--7--7--7--7--7--7--7--7--7--7--7--|
D|-----------------------------------------------|
                                               
       PM PM PM PM PM PM PM PM PM PM PM PM PM PM |
    E  S  S  S  S  S  S  S  S  S  S  S  S  S  S  |
D|-----------------------------------------------|
A|-----------------------------------------------|
F|-----------------------------------------------|
C|--5--------------------------------------------|
G|-----7--7--7--7--7--7--7--7--7--7--7--7--7--7--|
D|-----------------------------------------------|

       PM PM PM PM PM PM                 PM  PM PM  PM
    E  S  S  S  S  S  S   E   E  E   E   E   E  E   E
D|-----------------------------------------------------|
A|-----------------------------------------------------|
F|-----------------------------------------------------|
C|--4---------------------7---5--4---5-----------------|
G|-----5--5--5--5--5--5------------------7---5--4---5--|
D|-----------------------------------------------------|
                                                     
       PM PM PM PM PM PM                 PM  PM PM  PM |
    E  S  S  S  S  S  S   E   E  E   E   E   E  E   E  |
D|-----------------------------------------------------|
A|-----------------------------------------------------|
F|-----------------------------------------------------|
C|--4--------------------12--10--9--10-----------------|
G|-----5--5--5--5--5--5-----------------12--10--9--10--|
D|-----------------------------------------------------|

        PM PM PM PM PM PM PM PM PM PM PM PM PM PM
     E  S  S  S  S  S  S  S  S  S  S  S  S  S  S
D|------------------------------------------------|
A|------------------------------------------------|
F|------------------------------------------------|
C|------------------------------------------------|
G|--10--------------------------------------------|
D|------7--7--7--7--7--7--7--7--7--7--7--7--7--7--|
                                                
        PM PM PM PM PM PM PM PM PM PM PM PM PM PM |
     E  S  S  S  S  S  S  S  S  S  S  S  S  S  S  |
D|------------------------------------------------|
A|------------------------------------------------|
F|------------------------------------------------|
C|------------------------------------------------|
G|--10--------------------------------------------|
D|------7--7--7--7--7--7--7--7--7--7--7--7--7--7--|

       PM PM PM PM PM PM     PM PM PM PM PM PM
    E  S  S  S  S  S  S   E  S  S  S  S  S  S
D|---------------------------------------------|
A|---------------------------------------------|
F|---------------------------------------------|
C|---------------------------------------------|
G|--9--------------------10--------------------|
D|-----7--7--7--7--7--7------7--7--7--7--7--7--|
                                             
       PM PM PM PM PM PM     PM PM PM PM PM PM |
    E  S  S  S  S  S  S   E  S  S  S  S  S  S  |
D|---------------------------------------------|
A|---------------------------------------------|
F|---------------------------------------------|
C|---------------------------------------------|
G|--9--------------------10--------------------|
D|-----7--7--7--7--7--7------7--7--7--7--7--7--|

       PM PM PM PM PM PM PM PM PM PM PM PM PM PM
    E  S  S  S  S  S  S  S  S  S  S  S  S  S  S
D|-----------------------------------------------|
A|-----------------------------------------------|
F|-----------------------------------------------|
C|-----------------------------------------------|
G|--8--------------------------------------------|
D|-----6--6--6--6--6--6--6--6--6--6--6--6--6--6--|
                                               
       PM PM PM PM PM PM PM PM PM PM PM PM PM PM |
    E  S  S  S  S  S  S  S  S  S  S  S  S  S  S  |
D|-----------------------------------------------|
A|-----------------------------------------------|
F|-----------------------------------------------|
C|-----------------------------------------------|
G|--8--------------------------------------------|
D|-----6--6--6--6--6--6--6--6--6--6--6--6--6--6--|

    PM PM PM PM PM PM PM PM PM PM PM PM PM PM PM PM
    S  S  S  S  S  S  S  S  S  S  S  S  S  S  S  S
D|--------------------------------------------------|
A|--------------------------------------------------|
F|--------------------------------------------------|
C|--------------------------------------------------|
G|--9--9--9--9--8--8--8--8--6--6--6--6--4--4--4--4--|
D|--------------------------------------------------|
                                                  
    PM PM PM PM PM PM PM PM PM PM PM PM PM PM PM PM |
    S  S  S  S  S  S  S  S  S  S  S  S  S  S  S  S  |
D|--------------------------------------------------|
A|--------------------------------------------------|
F|--------------------------------------------------|
C|--------------------------------------------------|
G|--9--9--9--9--8--8--8--8--6--6--6--6--4--4--4--4--|
D|--------------------------------------------------|

       PM PM PM PM PM PM PM PM PM PM PM PM PM PM
    E  S  S  S  S  S  S  S  S  S  S  S  S  S  S
D|-----------------------------------------------|
A|-----------------------------------------------|
F|-----------------------------------------------|
C|-----------------------------------------------|
G|--6--------------------------------------------|
D|-----3--3--3--3--3--3--3--3--3--3--3--3--3--3--|
                                               
       PM PM PM PM PM PM PM PM PM PM PM PM PM PM |
    E  S  S  S  S  S  S  S  S  S  S  S  S  S  S  |
D|-----------------------------------------------|
A|-----------------------------------------------|
F|-----------------------------------------------|
C|-----------------------------------------------|
G|--6--------------------------------------------|
D|-----3--3--3--3--3--3--3--3--3--3--3--3--3--3--|

       PM PM PM PM PM PM    PM PM PM PM PM PM
    E  S  S  S  S  S  S  E  S  S  S  S  S  S
D|--------------------------------------------|
A|--------------------------------------------|
F|--------------------------------------------|
C|--------------------------------------------|
G|--5--------------------6--------------------|
D|-----3--3--3--3--3--3-----3--3--3--3--3--3--|
                                            
       PM PM PM PM PM PM    PM PM PM PM PM PM |
    E  S  S  S  S  S  S  E  S  S  S  S  S  S  |
D|--------------------------------------------|
A|--------------------------------------------|
F|--------------------------------------------|
C|--------------------------------------------|
G|--5--------------------6--------------------|
D|-----3--3--3--3--3--3-----3--3--3--3--3--3--|

       PM PM PM PM PM PM PM PM PM PM PM PM PM PM
    E  S  S  S  S  S  S  S  S  S  S  S  S  S  S
D|-----------------------------------------------|
A|-----------------------------------------------|
F|-----------------------------------------------|
C|-----------------------------------------------|
G|--5--------------------------------------------|
D|-----2--2--2--2--2--2--2--2--2--2--2--2--2--2--|
                                               
       PM PM PM PM PM PM PM PM PM PM PM PM PM PM |
    E  S  S  S  S  S  S  S  S  S  S  S  S  S  S  |
D|-----------------------------------------------|
A|-----------------------------------------------|
F|-----------------------------------------------|
C|-----------------------------------------------|
G|--5--------------------------------------------|
D|-----2--2--2--2--2--2--2--2--2--2--2--2--2--2--|

    PM PM PM PM PM PM PM PM PM PM PM PM PM PM PM PM
    S  S  S  S  S  S  S  S  S  S  S  S  S  S  S  S
D|--------------------------------------------------|
A|--------------------------------------------------|
F|--------------------------------------------------|
C|--------------------------------------------------|
G|--5--5--5--5--4--4--4--4--2--2--2--2--0--0--0--0--|
D|--------------------------------------------------|
                                                  
    PM PM PM PM PM PM PM PM PM PM PM PM PM PM PM PM |
    S  S  S  S  S  S  S  S  S  S  S  S  S  S  S  S  |
D|--------------------------------------------------|
A|--------------------------------------------------|
F|--------------------------------------------------|
C|--------------------------------------------------|
G|--5--5--5--5--4--4--4--4--2--2--2--2--0--0--0--0--|
D|--------------------------------------------------|

        PM PM PM     PM     PM    PM PM     PM     PM
     E  E  E  E   E  E   E  E     E  E   E  E   E  E   E   E
D|-----------------------------|------------------------------|
A|-----------------------------|------------------------------|
F|-----------------------------|------------------------------|
C|--12-----------11-----12-----|--------11-----12-----11--12--|
G|-----------------------------|------------------------------|
D|------7--7--7------7------7--|--7--7------7------7----------|
                                                            
        PM PM PM     PM     PM    PM PM     PM     PM         |
     E  E  E  E   E  E   E  E     E  E   E  E   E  E   E   E  |
D|-----------------------------|------------------------------|
A|-----------------------------|------------------------------|
F|-----------------------------|------------------------------|
C|-----------------------------|------------------------------|
G|--10------------9-----10-----|---------9-----10------9--10--|
D|------7--7--7------7------7--|--7--7------7------7----------|

        PM PM PM     PM     PM    PM PM
     E  E  E  E   E  E   E  E     E  E   E   E  E   E
D|-----------------------------|-----------------------|
A|-----------------------------|-----------------------|
F|-----------------------------|-----------------------|
C|--11-----------10-----11-----|--------11--10--8--10--|
G|-----------------------------|-----------------------|
D|------6--6--6------6------6--|--6--6-----------------|
                                                     
        PM PM PM     PM     PM    PM PM                |
     E  E  E  E   E  E   E  E     E  E   E   E  E   E  |
D|-----------------------------|-----------------------|
A|-----------------------------|-----------------------|
F|-----------------------------|-----------------------|
C|-----------------------------|-----------------------|
G|---9------------8------9-----|---------9---8--6---8--|
D|------6--6--6------6------6--|--6--6-----------------|

       PM PM PM    PM    PM    PM PM    PM    PM
    E  E  E  E  E  E  E  E     E  E  E  E  E  E  E  E
D|--------------------------|--------------------------|
A|--------------------------|--------------------------|
F|--------------------------|--------------------------|
C|--8-----------7-----8-----|--------7-----8-----7--8--|
G|--------------------------|--------------------------|
D|-----3--3--3-----3-----3--|--3--3-----3-----3--------|
                                                     
       PM PM PM    PM    PM    PM PM    PM    PM       |
    E  E  E  E  E  E  E  E     E  E  E  E  E  E  E  E  |
D|--------------------------|--------------------------|
A|--------------------------|--------------------------|
F|--------------------------|--------------------------|
C|--------------------------|--------------------------|
G|--6-----------5-----6-----|--------5-----6-----5--6--|
D|-----3--3--3-----3-----3--|--3--3-----3-----3--------|

       PM PM PM    PM    PM    PM PM
    E  E  E  E  E  E  E  E     E  E  E  E  E  E
D|--------------------------|--------------------|
A|--------------------------|--------------------|
F|--------------------------|--------------------|
C|--7-----------6-----7-----|--------7--6--4--6--|
G|--------------------------|--------------------|
D|-----2--2--2-----2-----2--|--2--2--------------|
                                               
       PM PM PM    PM    PM    PM PM             |
    E  E  E  E  E  E  E  E     E  E  E  E  E  E  |
D|--------------------------|--------------------|
A|--------------------------|--------------------|
F|--------------------------|--------------------|
C|--------------------------|--------------------|
G|--5-----------4-----5-----|--------5--4--2--4--|
D|-----2--2--2-----2-----2--|--2--2--------------|

    PM PM PM PM PM PM PM PM PM PM PM PM PM PM PM PM
    S  S  S  S  S  S  S  S  S  S  S  S  S  S  S  S
D|--------------------------------------------------|
A|--------------------------------------------------|
F|--------------------------------------------------|
C|--------------------------------------------------|
G|--------------------------------------------------|
D|--7--7--7--7--7--7--7--7--7--7--7--7--7--7--7--7--|
                                                  
    PM PM PM PM PM PM PM PM PM PM PM PM PM PM PM PM |
    S  S  S  S  S  S  S  S  S  S  S  S  S  S  S  S  |
D|--------------------------------------------------|
A|--------------------------------------------------|
F|--------------------------------------------------|
C|--------------------------------------------------|
G|--------------------------------------------------|
D|--7--7--7--7--7--7--7--7--7--7--7--7--7--7--7--7--|

    PM PM PM PM PM PM PM PM
    S  S  S  S  S  S  S  S  Q    Q
D|------------------------------------|
A|------------------------------------|
F|------------------------------------|
C|--------------------------9----9----|
G|--------------------------9----9----|
D|--7--7--7--7--7--7--7--7--7----7----|
                                    
    PM PM PM PM PM PM PM PM           |
    S  S  S  S  S  S  S  S  Q    Q    |
D|------------------------------------|
A|------------------------------------|
F|------------------------------------|
C|--------------------------9----9----|
G|--------------------------9----9----|
D|--7--7--7--7--7--7--7--7--7----7----|

    PM PM PM PM PM PM PM PM PM PM PM PM PM PM PM PM
    S  S  S  S  S  S  S  S  S  S  S  S  S  S  S  S
D|--------------------------------------------------|
A|--------------------------------------------------|
F|--------------------------------------------------|
C|--------------------------------------------------|
G|--------------------------------------------------|
D|--6--6--6--6--6--6--6--6--6--6--6--6--6--6--6--6--|
                                                  
    PM PM PM PM PM PM PM PM PM PM PM PM PM PM PM PM |
    S  S  S  S  S  S  S  S  S  S  S  S  S  S  S  S  |
D|--------------------------------------------------|
A|--------------------------------------------------|
F|--------------------------------------------------|
C|--------------------------------------------------|
G|--------------------------------------------------|
D|--6--6--6--6--6--6--6--6--6--6--6--6--6--6--6--6--|

    PM PM PM PM PM PM PM PM
    S  S  S  S  S  S  S  S  Q    Q
D|------------------------------------|
A|------------------------------------|
F|------------------------------------|
C|--------------------------8----8----|
G|--------------------------8----8----|
D|--6--6--6--6--6--6--6--6--6----6----|
                                    
    PM PM PM PM PM PM PM PM           |
    S  S  S  S  S  S  S  S  Q    Q    |
D|------------------------------------|
A|------------------------------------|
F|------------------------------------|
C|--------------------------8----8----|
G|--------------------------8----8----|
D|--6--6--6--6--6--6--6--6--6----6----|

    PM PM PM PM PM PM PM PM PM PM PM PM PM PM PM PM
    S  S  S  S  S  S  S  S  S  S  S  S  S  S  S  S
D|--------------------------------------------------|
A|--------------------------------------------------|
F|--------------------------------------------------|
C|--------------------------------------------------|
G|--------------------------------------------------|
D|--7--7--7--7--7--7--7--7--7--7--7--7--7--7--7--7--|
                                                  
    PM PM PM PM PM PM PM PM PM PM PM PM PM PM PM PM |
    S  S  S  S  S  S  S  S  S  S  S  S  S  S  S  S  |
D|--------------------------------------------------|
A|--------------------------------------------------|
F|--------------------------------------------------|
C|--------------------------------------------------|
G|--------------------------------------------------|
D|--7--7--7--7--7--7--7--7--7--7--7--7--7--7--7--7--|

    PM PM PM PM PM PM PM PM
    S  S  S  S  S  S  S  S  Q    Q
D|------------------------------------|
A|------------------------------------|
F|------------------------------------|
C|--------------------------9----9----|
G|--------------------------9----9----|
D|--7--7--7--7--7--7--7--7--7----7----|
                                    
    PM PM PM PM PM PM PM PM           |
    S  S  S  S  S  S  S  S  Q    Q    |
D|------------------------------------|
A|------------------------------------|
F|------------------------------------|
C|--------------------------9----9----|
G|--------------------------9----9----|
D|--7--7--7--7--7--7--7--7--7----7----|

    PM PM PM PM PM PM PM PM PM PM PM PM PM PM PM PM
    S  S  S  S  S  S  S  S  S  S  S  S  S  S  S  S
D|--------------------------------------------------|
A|--------------------------------------------------|
F|--------------------------------------------------|
C|--------------------------------------------------|
G|--------------------------------------------------|
D|--6--6--6--6--6--6--6--6--6--6--6--6--6--6--6--6--|
                                                  
    PM PM PM PM PM PM PM PM PM PM PM PM PM PM PM PM |
    S  S  S  S  S  S  S  S  S  S  S  S  S  S  S  S  |
D|--------------------------------------------------|
A|--------------------------------------------------|
F|--------------------------------------------------|
C|--------------------------------------------------|
G|--------------------------------------------------|
D|--6--6--6--6--6--6--6--6--6--6--6--6--6--6--6--6--|

    PM PM PM PM PM PM PM PM
    S  S  S  S  S  S  S  S  Q    Q
D|------------------------------------|
A|------------------------------------|
F|------------------------------------|
C|--------------------------8----8----|
G|--------------------------8----8----|
D|--6--6--6--6--6--6--6--6--6----6----|
                                    
    PM PM PM PM PM PM PM PM           |
    S  S  S  S  S  S  S  S  Q    Q    |
D|------------------------------------|
A|------------------------------------|
F|------------------------------------|
C|--------------------------8----8----|
G|--------------------------8----8----|
D|--6--6--6--6--6--6--6--6--6----6----|

    PM PM PM PM PM PM PM PM PM PM PM PM PM PM PM PM
    S  S  S  S  S  S  S  S  S  S  S  S  S  S  S  S
D|--------------------------------------------------|
A|--------------------------------------------------|
F|--------------------------------------------------|
C|--------------------------------------------------|
G|--------------------------------------------------|
D|--7--7--7--7--7--7--7--7--7--7--7--7--7--7--7--7--|
                                                  
    PM PM PM PM PM PM PM PM PM PM PM PM PM PM PM PM |
    S  S  S  S  S  S  S  S  S  S  S  S  S  S  S  S  |
D|--------------------------------------------------|
A|--------------------------------------------------|
F|--------------------------------------------------|
C|--------------------------------------------------|
G|--------------------------------------------------|
D|--7--7--7--7--7--7--7--7--7--7--7--7--7--7--7--7--|

    PM PM PM PM PM PM PM PM
    S  S  S  S  S  S  S  S  Q    Q
D|------------------------------------|
A|------------------------------------|
F|------------------------------------|
C|--------------------------9----9----|
G|--------------------------9----9----|
D|--7--7--7--7--7--7--7--7--7----7----|
                                    
    PM PM PM PM PM PM PM PM           |
    S  S  S  S  S  S  S  S  Q    Q    |
D|------------------------------------|
A|------------------------------------|
F|------------------------------------|
C|--------------------------9----9----|
G|--------------------------9----9----|
D|--7--7--7--7--7--7--7--7--7----7----|

    PM PM PM PM PM PM PM PM PM PM PM PM PM PM PM PM
    S  S  S  S  S  S  S  S  S  S  S  S  S  S  S  S
D|--------------------------------------------------|
A|--------------------------------------------------|
F|--------------------------------------------------|
C|--------------------------------------------------|
G|--------------------------------------------------|
D|--6--6--6--6--6--6--6--6--6--6--6--6--6--6--6--6--|
                                                  
    PM PM PM PM PM PM PM PM PM PM PM PM PM PM PM PM |
    S  S  S  S  S  S  S  S  S  S  S  S  S  S  S  S  |
D|--------------------------------------------------|
A|--------------------------------------------------|
F|--------------------------------------------------|
C|--------------------------------------------------|
G|--------------------------------------------------|
D|--6--6--6--6--6--6--6--6--6--6--6--6--6--6--6--6--|

    PM PM PM PM PM PM PM PM
    S  S  S  S  S  S  S  S  Q    Q
D|------------------------------------|
A|------------------------------------|
F|------------------------------------|
C|--------------------------8----8----|
G|--------------------------8----8----|
D|--6--6--6--6--6--6--6--6--6----6----|
                                    
    PM PM PM PM PM PM PM PM           |
    S  S  S  S  S  S  S  S  Q    Q    |
D|------------------------------------|
A|------------------------------------|
F|------------------------------------|
C|--------------------------8----8----|
G|--------------------------8----8----|
D|--6--6--6--6--6--6--6--6--6----6----|

    PM PM PM PM PM PM PM PM PM PM PM PM PM PM PM PM
    S  S  S  S  S  S  S  S  S  S  S  S  S  S  S  S
D|--------------------------------------------------|
A|--------------------------------------------------|
F|--------------------------------------------------|
C|--------------------------------------------------|
G|--------------------------------------------------|
D|--7--7--7--7--7--7--7--7--7--7--7--7--7--7--7--7--|
                                                  
    PM PM PM PM PM PM PM PM PM PM PM PM PM PM PM PM |
    S  S  S  S  S  S  S  S  S  S  S  S  S  S  S  S  |
D|--------------------------------------------------|
A|--------------------------------------------------|
F|--------------------------------------------------|
C|--------------------------------------------------|
G|--------------------------------------------------|
D|--7--7--7--7--7--7--7--7--7--7--7--7--7--7--7--7--|

    PM PM PM PM PM PM PM PM
    S  S  S  S  S  S  S  S  Q    Q
D|------------------------------------|
A|------------------------------------|
F|------------------------------------|
C|--------------------------9----9----|
G|--------------------------9----9----|
D|--7--7--7--7--7--7--7--7--7----7----|
                                    
    PM PM PM PM PM PM PM PM           |
    S  S  S  S  S  S  S  S  Q    Q    |
D|------------------------------------|
A|------------------------------------|
F|------------------------------------|
C|--------------------------9----9----|
G|--------------------------9----9----|
D|--7--7--7--7--7--7--7--7--7----7----|

    PM PM PM PM PM PM PM PM PM PM PM PM PM PM PM PM
    S  S  S  S  S  S  S  S  S  S  S  S  S  S  S  S
D|--------------------------------------------------|
A|--------------------------------------------------|
F|--------------------------------------------------|
C|--------------------------------------------------|
G|--------------------------------------------------|
D|--6--6--6--6--6--6--6--6--6--6--6--6--6--6--6--6--|
                                                  
    PM PM PM PM PM PM PM PM PM PM PM PM PM PM PM PM |
    S  S  S  S  S  S  S  S  S  S  S  S  S  S  S  S  |
D|--------------------------------------------------|
A|--------------------------------------------------|
F|--------------------------------------------------|
C|--------------------------------------------------|
G|--------------------------------------------------|
D|--6--6--6--6--6--6--6--6--6--6--6--6--6--6--6--6--|

    PM PM PM PM PM PM PM PM
    S  S  S  S  S  S  S  S  Q    Q
D|------------------------------------|
A|------------------------------------|
F|------------------------------------|
C|--------------------------8----8----|
G|--------------------------8----8----|
D|--6--6--6--6--6--6--6--6--6----6----|
                                    
    PM PM PM PM PM PM PM PM           |
    S  S  S  S  S  S  S  S  Q    Q    |
D|------------------------------------|
A|------------------------------------|
F|------------------------------------|
C|--------------------------8----8----|
G|--------------------------8----8----|
D|--6--6--6--6--6--6--6--6--6----6----|

[Solo Kummerer]
D|------------------------------|-----------------------------------|
A|------------------------------|-----------------------------------|
F|------------------------------|-----------------------------------|
C|------------------------------|-----------------------------------|
G|------------------------------|-----------------------------------|
D|------------------------------|-----------------------------------|
                                                                  
     T                              T                               |
     E.    E.    E    Q    Q        E.    E.    E    E.    E.    E  |
D|------------------------------|-----------------------------------|
A|--19p---12h---14h--15----L----|--19p---12h---14h--15p---14p---12--|
F|------------------------------|-----------------------------------|
C|------------------------------|-----------------------------------|
G|------------------------------|-----------------------------------|
D|------------------------------|-----------------------------------|

D|------------------------------|-----------------------------------|
A|------------------------------|-----------------------------------|
F|------------------------------|-----------------------------------|
C|------------------------------|-----------------------------------|
G|------------------------------|-----------------------------------|
D|------------------------------|-----------------------------------|
                                                                  
     T                              T                               |
     E.    E.    E    Q    Q        E.    E.    E    E.    E.    E  |
D|------------------------------|-----------------------------------|
A|--20p---12h---14h--15----L----|--20p---12h---14h--15p---14p---12--|
F|------------------------------|-----------------------------------|
C|------------------------------|-----------------------------------|
G|------------------------------|-----------------------------------|
D|------------------------------|-----------------------------------|

D|------------------------------|-----------------------------------|
A|------------------------------|-----------------------------------|
F|------------------------------|-----------------------------------|
C|------------------------------|-----------------------------------|
G|------------------------------|-----------------------------------|
D|------------------------------|-----------------------------------|
                                                                  
     T                              T                               |
     E.    E.    E    Q    Q        E.    E.    E    E.    E.    E  |
D|------------------------------|-----------------------------------|
A|--19p---12h---14h--15----L----|--19p---12h---14h--15p---14p---12--|
F|------------------------------|-----------------------------------|
C|------------------------------|-----------------------------------|
G|------------------------------|-----------------------------------|
D|------------------------------|-----------------------------------|

D|------------------------------|-----------------------------------|
A|------------------------------|-----------------------------------|
F|------------------------------|-----------------------------------|
C|------------------------------|-----------------------------------|
G|------------------------------|-----------------------------------|
D|------------------------------|-----------------------------------|
                                                                  
     T                              T                               |
     E.    E.    E    Q    Q        E.    E.    E    E.    E.    E  |
D|------------------------------|-----------------------------------|
A|--20p---12h---14h--15----L----|--20p---12h---14h--15p---14p---12--|
F|------------------------------|-----------------------------------|
C|------------------------------|-----------------------------------|
G|------------------------------|-----------------------------------|
D|------------------------------|-----------------------------------|

D|------------------------------|-----------------------------------|
A|------------------------------|-----------------------------------|
F|------------------------------|-----------------------------------|
C|------------------------------|-----------------------------------|
G|------------------------------|-----------------------------------|
D|------------------------------|-----------------------------------|
                                                                  
     T                              T                               |
     E.    E.    E    Q    Q        E.    E.    E    E.    E.    E  |
D|------------------------------|-----------------------------------|
A|--19p---12h---14h--15----L----|--19p---12h---14h--15p---14p---12--|
F|------------------------------|-----------------------------------|
C|------------------------------|-----------------------------------|
G|------------------------------|-----------------------------------|
D|------------------------------|-----------------------------------|

D|------------------------------|-----------------------------------|
A|------------------------------|-----------------------------------|
F|------------------------------|-----------------------------------|
C|------------------------------|-----------------------------------|
G|------------------------------|-----------------------------------|
D|------------------------------|-----------------------------------|
                                                                  
     T                              T                               |
     E.    E.    E    Q    Q        E.    E.    E    E.    E.    E  |
D|------------------------------|-----------------------------------|
A|--20p---12h---14h--15----L----|--20p---12h---14h--15p---14p---12--|
F|------------------------------|-----------------------------------|
C|------------------------------|-----------------------------------|
G|------------------------------|-----------------------------------|
D|------------------------------|-----------------------------------|

D|------------------------------|-----------------------------------|
A|------------------------------|-----------------------------------|
F|------------------------------|-----------------------------------|
C|------------------------------|-----------------------------------|
G|------------------------------|-----------------------------------|
D|------------------------------|-----------------------------------|
                                                                  
     T                              T                               |
     E.    E.    E    Q    Q        E.    E.    E    E.    E.    E  |
D|------------------------------|-----------------------------------|
A|--19p---12h---14h--15----L----|--19p---12h---14h--15p---14p---12--|
F|------------------------------|-----------------------------------|
C|------------------------------|-----------------------------------|
G|------------------------------|-----------------------------------|
D|------------------------------|-----------------------------------|

D|------------------------------|-----------------------------------|
A|------------------------------|-----------------------------------|
F|------------------------------|-----------------------------------|
C|------------------------------|-----------------------------------|
G|------------------------------|-----------------------------------|
D|------------------------------|-----------------------------------|
                                                                  
     T                              T                               |
     E.    E.    E    Q    Q        E.    E.    E    E.    E.    E  |
D|------------------------------|-----------------------------------|
A|--20p---12h---14h--15----L----|--20p---12h---14h--15p---14p---12--|
F|------------------------------|-----------------------------------|
C|------------------------------|-----------------------------------|
G|------------------------------|-----------------------------------|
D|------------------------------|-----------------------------------|

        PM PM PM    PM     PM    PM PM    PM     PM
     E  E  E  E  E  E   E  E     E  E  E  E   E  E  E   E
D|----------------------------|----------------------------|
A|----------------------------|----------------------------|
F|----------------------------|----------------------------|
C|--12-----------------12-----|--------------12--------12--|
G|---------------9------------|--------9------------9------|
D|------7--7--7-----7------7--|--7--7-----7------7---------|
                                                                                                             
    H                            H                         |
D|----------------------------|----------------------------|
A|--L-------------------------|--L-------------------------|
F|----------------------------|----------------------------|
C|----------------------------|----------------------------|
G|----------------------------|----------------------------|
D|----------------------------|----------------------------|

        PM PM PM    PM     PM    PM PM
     E  E  E  E  E  E   E  E     E  E   E  E  E  E
D|----------------------------|---------------------|
A|----------------------------|---------------------|
F|----------------------------|---------------------|
C|--11-----------------11-----|--------11--9--8--9--|
G|---------------9------------|---------------------|
D|------7--7--7-----7------7--|--7--7---------------|
                                                  
    H                            Q      E  E  E  E  |
D|----------------------------|---------------------|
A|--L-------------------------|--L------------------|
F|----------------------------|---------------------|
C|----------------------------|--------11--9--8--9--|
G|----------------------------|---------------------|
D|----------------------------|---------------------|

       PM PM PM PM PM PM PM PM PM PM PM PM PM PM
    E  S  S  S  S  S  S  S  S  S  S  S  S  S  S
D|-----------------------------------------------|
A|-----------------------------------------------|
F|-----------------------------------------------|
C|--7--------------------------------------------|
G|-----------------------------------------------|
D|-----3--3--3--3--3--3--3--3--3--3--3--3--3--3--|
                                               
       PM PM PM PM PM PM PM PM PM PM PM PM PM PM |
    E  S  S  S  S  S  S  S  S  S  S  S  S  S  S  |
D|-----------------------------------------------|
A|-----------------------------------------------|
F|-----------------------------------------------|
C|--7--------------------------------------------|
G|-----------------------------------------------|
D|-----3--3--3--3--3--3--3--3--3--3--3--3--3--3--|

       PM PM PM PM PM PM
    E  S  S  S  S  S  S  E  S S S S S S
D|--------------------------------------|
A|--------------------------------------|
F|--------------------------------------|
C|-----------------------7--------------|
G|--5-----------------------------------|
D|-----3--3--3--3--3--3-----3-3-3-3-3-3-|
                                      
       PM PM PM PM PM PM                |
    E  S  S  S  S  S  S  E  S S S S S S |
D|--------------------------------------|
A|--------------------------------------|
F|--------------------------------------|
C|-----------------------7--------------|
G|--5-----------------------------------|
D|-----3--3--3--3--3--3-----3-3-3-3-3-3-|

       PM PM PM PM PM PM PM PM PM PM PM PM PM PM
    E  S  S  S  S  S  S  S  S  S  S  S  S  S  S
D|-----------------------------------------------|
A|-----------------------------------------------|
F|-----------------------------------------------|
C|--5--------------------------------------------|
G|-----7--7--7--7--7--7--7--7--7--7--7--7--7--7--|
D|-----------------------------------------------|
                                               
       PM PM PM PM PM PM PM PM PM PM PM PM PM PM |
    E  S  S  S  S  S  S  S  S  S  S  S  S  S  S  |
D|-----------------------------------------------|
A|-----------------------------------------------|
F|-----------------------------------------------|
C|--5--------------------------------------------|
G|-----7--7--7--7--7--7--7--7--7--7--7--7--7--7--|
D|-----------------------------------------------|

       PM PM PM PM PM PM                    PM PM PM    PM     PM
    E  S  S  S  S  S  S  E  E  E  E      E  E  E  E  E  E   E  E
D|-----------------------------------|----------------------------|
A|-----------------------------------|----------------------------|
F|-----------------------------------|----------------------------|
C|--4--------------------7--5--4--5--|--12-----------------12-----|
G|-----5--5--5--5--5--5--------------|---------------9------------|
D|-----------------------------------|------7--7--7-----7------7--|
                                                                
       PM PM PM PM PM PM                    PM PM PM    PM     PM |
    E  S  S  S  S  S  S  E  E  E  E      E  E  E  E  E  E   E  E  |
D|-----------------------------------|----------------------------|
A|-----------------------------------|----------------------------|
F|-----------------------------------|----------------------------|
C|--4--------------------7--5--4--5--|--12-----------------12-----|
G|-----5--5--5--5--5--5--------------|---------------9------------|
D|-----------------------------------|------7--7--7-----7------7--|

        PM PM PM    PM     PM    PM PM    PM     PM
     E  E  E  E  E  E   E  E     E  E  E  E   E  E  E   E
D|----------------------------|----------------------------|
A|----------------------------|----------------------------|
F|----------------------------|----------------------------|
C|--12-----------------12-----|--------------12--------12--|
G|---------------9------------|--------9------------9------|
D|------7--7--7-----7------7--|--7--7-----7------7---------|
                                                          
        PM PM PM    PM     PM    PM PM    PM     PM        |
     E  E  E  E  E  E   E  E     E  E  E  E   E  E  E   E  |
D|----------------------------|----------------------------|
A|----------------------------|----------------------------|
F|----------------------------|----------------------------|
C|--12-----------------12-----|--------------12--------12--|
G|---------------9------------|--------9------------9------|
D|------7--7--7-----7------7--|--7--7-----7------7---------|

    PM PM
    E  E   E  E  E  E
D|---------------------|
A|---------------------|
F|---------------------|
C|--------11--9--8--9--|
G|---------------------|
D|--7--7---------------|
                      
    PM PM              |
    E  E   E  E  E  E  |
D|---------------------|
A|---------------------|
F|---------------------|
C|--------11--9--8--9--|
G|---------------------|
D|--7--7---------------|

       PM PM PM PM PM PM PM PM PM PM PM PM PM PM
    E  S  S  S  S  S  S  S  S  S  S  S  S  S  S
D|-----------------------------------------------|
A|-----------------------------------------------|
F|-----------------------------------------------|
C|--7--------------------------------------------|
G|-----------------------------------------------|
D|-----3--3--3--3--3--3--3--3--3--3--3--3--3--3--|
                                               
       PM PM PM PM PM PM PM PM PM PM PM PM PM PM |
    E  S  S  S  S  S  S  S  S  S  S  S  S  S  S  |
D|-----------------------------------------------|
A|-----------------------------------------------|
F|-----------------------------------------------|
C|--7--------------------------------------------|
G|-----------------------------------------------|
D|-----3--3--3--3--3--3--3--3--3--3--3--3--3--3--|

       PM PM PM PM PM PM
    E  S  S  S  S  S  S  E  S S S S S S
D|--------------------------------------|
A|--------------------------------------|
F|--------------------------------------|
C|-----------------------7--------------|
G|--5-----------------------------------|
D|-----3--3--3--3--3--3-----3-3-3-3-3-3-|
                                      
       PM PM PM PM PM PM                |
    E  S  S  S  S  S  S  E  S S S S S S |
D|--------------------------------------|
A|--------------------------------------|
F|--------------------------------------|
C|-----------------------7--------------|
G|--5-----------------------------------|
D|-----3--3--3--3--3--3-----3-3-3-3-3-3-|

       PM PM PM PM PM PM PM PM PM PM PM PM PM PM
    E  S  S  S  S  S  S  S  S  S  S  S  S  S  S
D|-----------------------------------------------|
A|-----------------------------------------------|
F|-----------------------------------------------|
C|--5--------------------------------------------|
G|-----7--7--7--7--7--7--7--7--7--7--7--7--7--7--|
D|-----------------------------------------------|
                                               
       PM PM PM PM PM PM PM PM PM PM PM PM PM PM |
    E  S  S  S  S  S  S  S  S  S  S  S  S  S  S  |
D|-----------------------------------------------|
A|-----------------------------------------------|
F|-----------------------------------------------|
C|--5--------------------------------------------|
G|-----7--7--7--7--7--7--7--7--7--7--7--7--7--7--|
D|-----------------------------------------------|

       PM PM PM PM PM PM                 PM  PM PM  PM
    E  S  S  S  S  S  S   E   E  E   E   E   E  E   E
D|-----------------------------------------------------|
A|-----------------------------------------------------|
F|-----------------------------------------------------|
C|--4---------------------7---5--4---5-----------------|
G|-----5--5--5--5--5--5------------------7---5--4---5--|
D|-----------------------------------------------------|
                                                     
       PM PM PM PM PM PM                 PM  PM PM  PM |
    E  S  S  S  S  S  S   E   E  E   E   E   E  E   E  |
D|-----------------------------------------------------|
A|-----------------------------------------------------|
F|-----------------------------------------------------|
C|--4--------------------12--10--9--10-----------------|
G|-----5--5--5--5--5--5-----------------12--10--9--10--|
D|-----------------------------------------------------|

        PM PM PM PM PM PM PM PM PM PM PM PM PM PM
     E  S  S  S  S  S  S  S  S  S  S  S  S  S  S
D|------------------------------------------------|
A|------------------------------------------------|
F|------------------------------------------------|
C|------------------------------------------------|
G|--10--------------------------------------------|
D|------7--7--7--7--7--7--7--7--7--7--7--7--7--7--|
                                                
        PM PM PM PM PM PM PM PM PM PM PM PM PM PM |
     E  S  S  S  S  S  S  S  S  S  S  S  S  S  S  |
D|------------------------------------------------|
A|------------------------------------------------|
F|------------------------------------------------|
C|------------------------------------------------|
G|--10--------------------------------------------|
D|------7--7--7--7--7--7--7--7--7--7--7--7--7--7--|

       PM PM PM PM PM PM     PM PM PM PM PM PM
    E  S  S  S  S  S  S   E  S  S  S  S  S  S
D|---------------------------------------------|
A|---------------------------------------------|
F|---------------------------------------------|
C|---------------------------------------------|
G|--9--------------------10--------------------|
D|-----7--7--7--7--7--7------7--7--7--7--7--7--|
                                             
       PM PM PM PM PM PM     PM PM PM PM PM PM |
    E  S  S  S  S  S  S   E  S  S  S  S  S  S  |
D|---------------------------------------------|
A|---------------------------------------------|
F|---------------------------------------------|
C|---------------------------------------------|
G|--9--------------------10--------------------|
D|-----7--7--7--7--7--7------7--7--7--7--7--7--|

       PM PM PM PM PM PM PM PM PM PM PM PM PM PM
    E  S  S  S  S  S  S  S  S  S  S  S  S  S  S
D|-----------------------------------------------|
A|-----------------------------------------------|
F|-----------------------------------------------|
C|-----------------------------------------------|
G|--8--------------------------------------------|
D|-----6--6--6--6--6--6--6--6--6--6--6--6--6--6--|
                                               
       PM PM PM PM PM PM PM PM PM PM PM PM PM PM |
    E  S  S  S  S  S  S  S  S  S  S  S  S  S  S  |
D|-----------------------------------------------|
A|-----------------------------------------------|
F|-----------------------------------------------|
C|-----------------------------------------------|
G|--8--------------------------------------------|
D|-----6--6--6--6--6--6--6--6--6--6--6--6--6--6--|

    PM PM PM PM PM PM PM PM PM PM PM PM PM PM PM PM
    S  S  S  S  S  S  S  S  S  S  S  S  S  S  S  S
D|--------------------------------------------------|
A|--------------------------------------------------|
F|--------------------------------------------------|
C|--------------------------------------------------|
G|--9--9--9--9--8--8--8--8--6--6--6--6--4--4--4--4--|
D|--------------------------------------------------|
                                                  
    PM PM PM PM PM PM PM PM PM PM PM PM PM PM PM PM |
    S  S  S  S  S  S  S  S  S  S  S  S  S  S  S  S  |
D|--------------------------------------------------|
A|--------------------------------------------------|
F|--------------------------------------------------|
C|--------------------------------------------------|
G|--9--9--9--9--8--8--8--8--6--6--6--6--4--4--4--4--|
D|--------------------------------------------------|

       PM PM PM PM PM PM PM PM PM PM PM PM PM PM
    E  S  S  S  S  S  S  S  S  S  S  S  S  S  S
D|-----------------------------------------------|
A|-----------------------------------------------|
F|-----------------------------------------------|
C|-----------------------------------------------|
G|--6--------------------------------------------|
D|-----3--3--3--3--3--3--3--3--3--3--3--3--3--3--|
                                               
       PM PM PM PM PM PM PM PM PM PM PM PM PM PM |
    E  S  S  S  S  S  S  S  S  S  S  S  S  S  S  |
D|-----------------------------------------------|
A|-----------------------------------------------|
F|-----------------------------------------------|
C|-----------------------------------------------|
G|--6--------------------------------------------|
D|-----3--3--3--3--3--3--3--3--3--3--3--3--3--3--|

       PM PM PM PM PM PM    PM PM PM PM PM PM
    E  S  S  S  S  S  S  E  S  S  S  S  S  S
D|--------------------------------------------|
A|--------------------------------------------|
F|--------------------------------------------|
C|--------------------------------------------|
G|--5--------------------6--------------------|
D|-----3--3--3--3--3--3-----3--3--3--3--3--3--|
                                            
       PM PM PM PM PM PM    PM PM PM PM PM PM |
    E  S  S  S  S  S  S  E  S  S  S  S  S  S  |
D|--------------------------------------------|
A|--------------------------------------------|
F|--------------------------------------------|
C|--------------------------------------------|
G|--5--------------------6--------------------|
D|-----3--3--3--3--3--3-----3--3--3--3--3--3--|

       PM PM PM PM PM PM PM PM PM PM PM PM PM PM
    E  S  S  S  S  S  S  S  S  S  S  S  S  S  S
D|-----------------------------------------------|
A|-----------------------------------------------|
F|-----------------------------------------------|
C|-----------------------------------------------|
G|--5--------------------------------------------|
D|-----2--2--2--2--2--2--2--2--2--2--2--2--2--2--|
                                               
       PM PM PM PM PM PM PM PM PM PM PM PM PM PM |
    E  S  S  S  S  S  S  S  S  S  S  S  S  S  S  |
D|-----------------------------------------------|
A|-----------------------------------------------|
F|-----------------------------------------------|
C|-----------------------------------------------|
G|--5--------------------------------------------|
D|-----2--2--2--2--2--2--2--2--2--2--2--2--2--2--|

    PM PM PM PM PM PM PM PM PM PM PM PM PM PM PM PM
    S  S  S  S  S  S  S  S  S  S  S  S  S  S  S  S
D|--------------------------------------------------|
A|--------------------------------------------------|
F|--------------------------------------------------|
C|--------------------------------------------------|
G|--5--5--5--5--4--4--4--4--2--2--2--2--0--0--0--0--|
D|--------------------------------------------------|
                                                  
    PM PM PM PM PM PM PM PM PM PM PM PM PM PM PM PM |
    S  S  S  S  S  S  S  S  S  S  S  S  S  S  S  S  |
D|--------------------------------------------------|
A|--------------------------------------------------|
F|--------------------------------------------------|
C|--------------------------------------------------|
G|--5--5--5--5--4--4--4--4--2--2--2--2--0--0--0--0--|
D|--------------------------------------------------|

        PM PM PM     PM     PM    PM PM     PM     PM
     E  E  E  E   E  E   E  E     E  E   E  E   E  E   E   E
D|-----------------------------|------------------------------|
A|-----------------------------|------------------------------|
F|-----------------------------|------------------------------|
C|--12-----------11-----12-----|--------11-----12-----11--12--|
G|-----------------------------|------------------------------|
D|------7--7--7------7------7--|--7--7------7------7----------|
                                                            
        PM PM PM     PM     PM    PM PM     PM     PM         |
     E  E  E  E   E  E   E  E     E  E   E  E   E  E   E   E  |
D|-----------------------------|------------------------------|
A|-----------------------------|------------------------------|
F|-----------------------------|------------------------------|
C|-----------------------------|------------------------------|
G|--10------------9-----10-----|---------9-----10------9--10--|
D|------7--7--7------7------7--|--7--7------7------7----------|

        PM PM PM     PM     PM    PM PM
     E  E  E  E   E  E   E  E     E  E   E   E  E   E
D|-----------------------------|-----------------------|
A|-----------------------------|-----------------------|
F|-----------------------------|-----------------------|
C|--11-----------10-----11-----|--------11--10--8--10--|
G|-----------------------------|-----------------------|
D|------6--6--6------6------6--|--6--6-----------------|
                                                     
        PM PM PM     PM     PM    PM PM                |
     E  E  E  E   E  E   E  E     E  E   E   E  E   E  |
D|-----------------------------|-----------------------|
A|-----------------------------|-----------------------|
F|-----------------------------|-----------------------|
C|-----------------------------|-----------------------|
G|---9------------8------9-----|---------9---8--6---8--|
D|------6--6--6------6------6--|--6--6-----------------|

       PM PM PM    PM    PM    PM PM    PM    PM
    E  E  E  E  E  E  E  E     E  E  E  E  E  E  E  E
D|--------------------------|--------------------------|
A|--------------------------|--------------------------|
F|--------------------------|--------------------------|
C|--8-----------7-----8-----|--------7-----8-----7--8--|
G|--------------------------|--------------------------|
D|-----3--3--3-----3-----3--|--3--3-----3-----3--------|
                                                     
       PM PM PM    PM    PM    PM PM    PM    PM       |
    E  E  E  E  E  E  E  E     E  E  E  E  E  E  E  E  |
D|--------------------------|--------------------------|
A|--------------------------|--------------------------|
F|--------------------------|--------------------------|
C|--------------------------|--------------------------|
G|--6-----------5-----6-----|--------5-----6-----5--6--|
D|-----3--3--3-----3-----3--|--3--3-----3-----3--------|

       PM PM PM    PM    PM    PM PM
    E  E  E  E  E  E  E  E     E  E  E  E  E  E
D|--------------------------|--------------------|
A|--------------------------|--------------------|
F|--------------------------|--------------------|
C|--7-----------6-----7-----|--------7--6--4--6--|
G|--------------------------|--------------------|
D|-----2--2--2-----2-----2--|--2--2--------------|
                                               
       PM PM PM    PM    PM    PM PM             |
    E  E  E  E  E  E  E  E     E  E  E  E  E  E  |
D|--------------------------|--------------------|
A|--------------------------|--------------------|
F|--------------------------|--------------------|
C|--------------------------|--------------------|
G|--5-----------4-----5-----|--------5--4--2--4--|
D|-----2--2--2-----2-----2--|--2--2--------------|

[Solo Muenzner]
D|--------------------------------------------------|
A|--------------------------------------------------|
F|--------------------------------------------------|
C|--------------------------------------------------|
G|--------------------------------------------------|
D|--------------------------------------------------|
                                                  
    PM PM PM PM PM PM PM PM PM PM PM PM PM PM PM PM |
    S  S  S  S  S  S  S  S  S  S  S  S  S  S  S  S  |
D|--------------------------------------------------|
A|--------------------------------------------------|
F|--------------------------------------------------|
C|--------------------------------------------------|
G|--------------------------------------------------|
D|--7--7--7--7--7--7--7--7--7--7--7--7--7--7--7--7--|

D|------------------------------------|
A|------------------------------------|
F|------------------------------------|
C|------------------------------------|
G|------------------------------------|
D|------------------------------------|
                                    
    PM PM PM PM PM PM PM PM           |
    S  S  S  S  S  S  S  S  Q    Q    |
D|------------------------------------|
A|------------------------------------|
F|------------------------------------|
C|--------------------------9----9----|
G|--------------------------9----9----|
D|--7--7--7--7--7--7--7--7--7----7----|

D|--------------------------------------------------|
A|--------------------------------------------------|
F|--------------------------------------------------|
C|--------------------------------------------------|
G|--------------------------------------------------|
D|--------------------------------------------------|
                                                  
    PM PM PM PM PM PM PM PM PM PM PM PM PM PM PM PM |
    S  S  S  S  S  S  S  S  S  S  S  S  S  S  S  S  |
D|--------------------------------------------------|
A|--------------------------------------------------|
F|--------------------------------------------------|
C|--------------------------------------------------|
G|--------------------------------------------------|
D|--6--6--6--6--6--6--6--6--6--6--6--6--6--6--6--6--|

    PM PM PM PM PM PM PM PM
    S  S  S  S  S  S  S  S  Q    Q
D|------------------------------------|
A|------------------------------------|
F|------------------------------------|
C|------------------------------------|
G|------------------------------------|
D|------------------------------------|
                                    
    PM PM PM PM PM PM PM PM           |
    S  S  S  S  S  S  S  S  Q    Q    |
D|------------------------------------|
A|------------------------------------|
F|------------------------------------|
C|--------------------------8----8----|
G|--------------------------8----8----|
D|--6--6--6--6--6--6--6--6--6----6----|

D|--------------------------------------------------|
A|--------------------------------------------------|
F|--------------------------------------------------|
C|--------------------------------------------------|
G|--------------------------------------------------|
D|--------------------------------------------------|
                                                  
    PM PM PM PM PM PM PM PM PM PM PM PM PM PM PM PM |
    S  S  S  S  S  S  S  S  S  S  S  S  S  S  S  S  |
D|--------------------------------------------------|
A|--------------------------------------------------|
F|--------------------------------------------------|
C|--------------------------------------------------|
G|--------------------------------------------------|
D|--7--7--7--7--7--7--7--7--7--7--7--7--7--7--7--7--|

D|------------------------------------|
A|------------------------------------|
F|------------------------------------|
C|------------------------------------|
G|------------------------------------|
D|------------------------------------|
                                    
    PM PM PM PM PM PM PM PM           |
    S  S  S  S  S  S  S  S  Q    Q    |
D|------------------------------------|
A|------------------------------------|
F|------------------------------------|
C|--------------------------9----9----|
G|--------------------------9----9----|
D|--7--7--7--7--7--7--7--7--7----7----|

D|--------------------------------------------------|
A|--------------------------------------------------|
F|--------------------------------------------------|
C|--------------------------------------------------|
G|--------------------------------------------------|
D|--------------------------------------------------|
                                                  
    PM PM PM PM PM PM PM PM PM PM PM PM PM PM PM PM |
    S  S  S  S  S  S  S  S  S  S  S  S  S  S  S  S  |
D|--------------------------------------------------|
A|--------------------------------------------------|
F|--------------------------------------------------|
C|--------------------------------------------------|
G|--------------------------------------------------|
D|--6--6--6--6--6--6--6--6--6--6--6--6--6--6--6--6--|

D|------------------------------------|
A|------------------------------------|
F|------------------------------------|
C|------------------------------------|
G|------------------------------------|
D|------------------------------------|
                                    
    PM PM PM PM PM PM PM PM           |
    S  S  S  S  S  S  S  S  Q    Q    |
D|------------------------------------|
A|------------------------------------|
F|------------------------------------|
C|--------------------------8----8----|
G|--------------------------8----8----|
D|--6--6--6--6--6--6--6--6--6----6----|

D|--------------------------------------------------|
A|--------------------------------------------------|
F|--------------------------------------------------|
C|--------------------------------------------------|
G|--------------------------------------------------|
D|--------------------------------------------------|
                                                  
    PM PM PM PM PM PM PM PM PM PM PM PM PM PM PM PM |
    S  S  S  S  S  S  S  S  S  S  S  S  S  S  S  S  |
D|--------------------------------------------------|
A|--------------------------------------------------|
F|--------------------------------------------------|
C|--------------------------------------------------|
G|--------------------------------------------------|
D|--7--7--7--7--7--7--7--7--7--7--7--7--7--7--7--7--|

D|------------------------------------|
A|------------------------------------|
F|------------------------------------|
C|------------------------------------|
G|------------------------------------|
D|------------------------------------|
                                    
    PM PM PM PM PM PM PM PM           |
    S  S  S  S  S  S  S  S  Q    Q    |
D|------------------------------------|
A|------------------------------------|
F|------------------------------------|
C|--------------------------9----9----|
G|--------------------------9----9----|
D|--7--7--7--7--7--7--7--7--7----7----|

D|--------------------------------------------------|
A|--------------------------------------------------|
F|--------------------------------------------------|
C|--------------------------------------------------|
G|--------------------------------------------------|
D|--------------------------------------------------|
                                                  
    PM PM PM PM PM PM PM PM PM PM PM PM PM PM PM PM |
    S  S  S  S  S  S  S  S  S  S  S  S  S  S  S  S  |
D|--------------------------------------------------|
A|--------------------------------------------------|
F|--------------------------------------------------|
C|--------------------------------------------------|
G|--------------------------------------------------|
D|--6--6--6--6--6--6--6--6--6--6--6--6--6--6--6--6--|

D|------------------------------------|
A|------------------------------------|
F|------------------------------------|
C|------------------------------------|
G|------------------------------------|
D|------------------------------------|
                                    
    PM PM PM PM PM PM PM PM           |
    S  S  S  S  S  S  S  S  Q    Q    |
D|------------------------------------|
A|------------------------------------|
F|------------------------------------|
C|--------------------------8----8----|
G|--------------------------8----8----|
D|--6--6--6--6--6--6--6--6--6----6----|

D|--------------------------------------------------|
A|--------------------------------------------------|
F|--------------------------------------------------|
C|--------------------------------------------------|
G|--------------------------------------------------|
D|--------------------------------------------------|
                                                  
    PM PM PM PM PM PM PM PM PM PM PM PM PM PM PM PM |
    S  S  S  S  S  S  S  S  S  S  S  S  S  S  S  S  |
D|--------------------------------------------------|
A|--------------------------------------------------|
F|--------------------------------------------------|
C|--------------------------------------------------|
G|--------------------------------------------------|
D|--7--7--7--7--7--7--7--7--7--7--7--7--7--7--7--7--|

D|------------------------------------|
A|------------------------------------|
F|------------------------------------|
C|------------------------------------|
G|------------------------------------|
D|------------------------------------|
                                    
    PM PM PM PM PM PM PM PM           |
    S  S  S  S  S  S  S  S  Q    Q    |
D|------------------------------------|
A|------------------------------------|
F|------------------------------------|
C|--------------------------9----9----|
G|--------------------------9----9----|
D|--7--7--7--7--7--7--7--7--7----7----|

D|--------------------------------------------------|
A|--------------------------------------------------|
F|--------------------------------------------------|
C|--------------------------------------------------|
G|--------------------------------------------------|
D|--------------------------------------------------|
                                                  
    PM PM PM PM PM PM PM PM PM PM PM PM PM PM PM PM |
    S  S  S  S  S  S  S  S  S  S  S  S  S  S  S  S  |
D|--------------------------------------------------|
A|--------------------------------------------------|
F|--------------------------------------------------|
C|--------------------------------------------------|
G|--------------------------------------------------|
D|--6--6--6--6--6--6--6--6--6--6--6--6--6--6--6--6--|

D|------------------------------------|
A|------------------------------------|
F|------------------------------------|
C|------------------------------------|
G|------------------------------------|
D|------------------------------------|
                                    
    PM PM PM PM PM PM PM PM           |
    S  S  S  S  S  S  S  S  Q    Q    |
D|------------------------------------|
A|------------------------------------|
F|------------------------------------|
C|--------------------------8----8----|
G|--------------------------8----8----|
D|--6--6--6--6--6--6--6--6--6----6----|

[Solo Kummerer]
D|------------------------------|-----------------------------------|
A|------------------------------|-----------------------------------|
F|------------------------------|-----------------------------------|
C|------------------------------|-----------------------------------|
G|------------------------------|-----------------------------------|
D|------------------------------|-----------------------------------|
                                                                  
     T                              T                               |
     E.    E.    E    Q    Q        E.    E.    E    E.    E.    E  |
D|------------------------------|-----------------------------------|
A|--19p---12h---14h--15----L----|--19p---12h---14h--15p---14p---12--|
F|------------------------------|-----------------------------------|
C|------------------------------|-----------------------------------|
G|------------------------------|-----------------------------------|
D|------------------------------|-----------------------------------|

D|------------------------------|-----------------------------------|
A|------------------------------|-----------------------------------|
F|------------------------------|-----------------------------------|
C|------------------------------|-----------------------------------|
G|------------------------------|-----------------------------------|
D|------------------------------|-----------------------------------|
                                                                  
     T                              T                               |
     E.    E.    E    Q    Q        E.    E.    E    E.    E.    E  |
D|------------------------------|-----------------------------------|
A|--20p---12h---14h--15----L----|--20p---12h---14h--15p---14p---12--|
F|------------------------------|-----------------------------------|
C|------------------------------|-----------------------------------|
G|------------------------------|-----------------------------------|
D|------------------------------|-----------------------------------|

D|------------------------------|-----------------------------------|
A|------------------------------|-----------------------------------|
F|------------------------------|-----------------------------------|
C|------------------------------|-----------------------------------|
G|------------------------------|-----------------------------------|
D|------------------------------|-----------------------------------|
                                                                  
     T                              T                               |
     E.    E.    E    Q    Q        E.    E.    E    E.    E.    E  |
D|------------------------------|-----------------------------------|
A|--19p---12h---14h--15----L----|--19p---12h---14h--15p---14p---12--|
F|------------------------------|-----------------------------------|
C|------------------------------|-----------------------------------|
G|------------------------------|-----------------------------------|
D|------------------------------|-----------------------------------|

D|------------------------------|-----------------------------------|
A|------------------------------|-----------------------------------|
F|------------------------------|-----------------------------------|
C|------------------------------|-----------------------------------|
G|------------------------------|-----------------------------------|
D|------------------------------|-----------------------------------|
                                                                  
     T                              T                               |
     E.    E.    E    Q    Q        E.    E.    E    E.    E.    E  |
D|------------------------------|-----------------------------------|
A|--20p---12h---14h--15----L----|--20p---12h---14h--15p---14p---12--|
F|------------------------------|-----------------------------------|
C|------------------------------|-----------------------------------|
G|------------------------------|-----------------------------------|
D|------------------------------|-----------------------------------|

D|------------------------------|-----------------------------------|
A|------------------------------|-----------------------------------|
F|------------------------------|-----------------------------------|
C|------------------------------|-----------------------------------|
G|------------------------------|-----------------------------------|
D|------------------------------|-----------------------------------|
                                                                  
     T                              T                               |
     E.    E.    E    Q    Q        E.    E.    E    E.    E.    E  |
D|------------------------------|-----------------------------------|
A|--19p---12h---14h--15----L----|--19p---12h---14h--15p---14p---12--|
F|------------------------------|-----------------------------------|
C|------------------------------|-----------------------------------|
G|------------------------------|-----------------------------------|
D|------------------------------|-----------------------------------|

D|------------------------------|-----------------------------------|
A|------------------------------|-----------------------------------|
F|------------------------------|-----------------------------------|
C|------------------------------|-----------------------------------|
G|------------------------------|-----------------------------------|
D|------------------------------|-----------------------------------|
                                                                  
     T                              T                               |
     E.    E.    E    Q    Q        E.    E.    E    E.    E.    E  |
D|------------------------------|-----------------------------------|
A|--20p---12h---14h--15----L----|--20p---12h---14h--15p---14p---12--|
F|------------------------------|-----------------------------------|
C|------------------------------|-----------------------------------|
G|------------------------------|-----------------------------------|
D|------------------------------|-----------------------------------|

D|------------------------------|-----------------------------------|
A|------------------------------|-----------------------------------|
F|------------------------------|-----------------------------------|
C|------------------------------|-----------------------------------|
G|------------------------------|-----------------------------------|
D|------------------------------|-----------------------------------|
                                                                  
     T                              T                               |
     E.    E.    E    Q    Q        E.    E.    E    E.    E.    E  |
D|------------------------------|-----------------------------------|
A|--19p---12h---14h--15----L----|--19p---12h---14h--15p---14p---12--|
F|------------------------------|-----------------------------------|
C|------------------------------|-----------------------------------|
G|------------------------------|-----------------------------------|
D|------------------------------|-----------------------------------|

D|------------------------------|-----------------------------------|
A|------------------------------|-----------------------------------|
F|------------------------------|-----------------------------------|
C|------------------------------|-----------------------------------|
G|------------------------------|-----------------------------------|
D|------------------------------|-----------------------------------|
                                                                  
     T                              T                               |
     E.    E.    E    Q    Q        E.    E.    E    E.    E.    E  |
D|------------------------------|-----------------------------------|
A|--20p---12h---14h--15----L----|--20p---12h---14h--15p---14p---12--|
F|------------------------------|-----------------------------------|
C|------------------------------|-----------------------------------|
G|------------------------------|-----------------------------------|
D|------------------------------|-----------------------------------|

[Outro]
    H                              H                                |
D|------------------------------|-----------------------------------|
A|--L---------------------------|--L--------------------------------|
F|------------------------------|-----------------------------------|
C|------------------------------|-----------------------------------|
G|------------------------------|-----------------------------------|
D|------------------------------|-----------------------------------|


************************************

| PM  Palm mute
| h   Hammer-on
| p   Pull-off
 

************************************

            
            
Suggest correction
Creating personal tab
Creating personal tab
You can edit any tab online and save it as your Personal.

You can edit, replace or remove any tab part or add personal notes – all changes will be seen only by you.

Personal tabs can be accessed anytime from any device, even offline.
Learn more »
comments
print report bad tab
4 comments total. Showing first comments.
0 reply
random-emo-kill 30 Sep 02, 2009 06:59 AM

great tab man! thanks 4 putting on

0 reply
shadesofanger 62 Sep 18, 2009 02:21 PM

A correction I would like to put in, the first 20 fret tap should be a 22, second tap is still a 20 though.

0 reply
NecroComet 112 Jun 30, 2012 09:47 PM

so this song can be done in standard tuning if im wrong point me out the open or 1st fret on the d string(low e string) just as a tip so ppl dont need to be in d standard

guest
You may want to rate the tab now too:
select rating
Wanna post a correction for this tab? Suggest correction