Oops, an error
Loading. Please wait.

The Accountable tab

version 1
version 1

Whole song

Interactive

by Oceana
4,570 views 3 this week
5 commentsread comments
1 2 3 4 5
1 last vote to show rating
add to favorites
×
Save as Personal and add changes to this tab that will be seen only by you. Learn more ›
×
You can save this tab as Personal to edit and correct it or add notes. All changes will be seen only by you. Learn more »
launch autoscroll
font size
0
reset
how to read this tab
guitar tuner
edit
Autoscroll
slow
fast
+/-
esc
set tempo
stop
Author
Tabbed by: Trey Hopkins
Email: PLEASEE RATE IT!!! AND COMMENT IT!!! this is a good tab.
Tuning: dropC#

intro play 6 times.

e|----------------------------------------------------------------------------|
B|----------------------------------------------------------------------------|
G|----------------------------------------------------------------------------|
D|----------------------------------------------------------------------------|
A|------7 8--------------7---- -10------12-------13-13-13---------------------|
E|--0--------0 5 0 8 5 0 8 0 0--8--0 0--10--0 0--12-12-12---------------------|

e|--------------------------------------------------------------------------|
B|--------------------------------------------------------------------------|
G|--14 14 14 14 14 14 14 14-------------------------------------------------|
D|--------------------------------------------------------------------------|
A|--12 12 12 12 12 12 12 12-------------------------------------------------|
E|--------------------------------------------------------------------------|

play this from :33 to :55
e|-----------------------------------------------------------------------------|
B|-----------------------------------------------------------------------------|
G|---------------------9h10 12 14----------------------------------------------|
D|----10 5h7 10/12------------------15 14--------------------------------------|
A|-----------------------------------------------------------------------------|
E|-----------------------------------------------------------------------------|


e|-----------------------------------------15-------------------------------|
B|--------------18 15 17-----------18 15-------------18 15 17---------------|
G|-----15 14---------------15 14--------------15 14 ------------------------|
D|--------------------------------------------------------------------------|
A|--------------------------------------------------------------------------|
E|--------------------------------------------------------------------------|

e|---------------------------------------------------------------------------|
B|--------18 14--------------------------------------------------------------|
G|15 14 ------------------ --------------------------------------------------|
D|---------------------------------------------------------------------------|
A|---------------------------------------------------------------------------|
E|---------------------------------------------------------------------------|

e|---------------------------------------------------------------------------|
B|----18 18 18 18----15 15 17 17---------------------------------------------|
G|----------------------------------15bend 14bend----------------------------|
D|------------------------------------------------14bend---------------------|
A|---------------------------------------------------------------------------|
E|---------------------------------------------------------------------------|

e|--------------------------------------------------------------------------|
B|-----------------------------------------------------------6-----10-------|
G|--------------------------------------------------------7------10---------|
D|-14-14 14 14 14 14 14 14 14 14 14 14 15 15 15 15-----5------8-------------|
                                    x4
A|-12-12 12 12 12 12 12 12 15 15 15 15 17 17 17 17--------------------------|
E|--------------------------------------------------------------------------|

e|-------------------------------------------------------------------15-----| play this twice.
B|------------------15 17 15 ----------------------------15 17 15 18 ---14--|
G|------------14 15----------17--12 14bend--------14 15 --------------------|
D|15 14-------------------------------------15 14 --------------------------|
A|-----15 17----------------------------------------------------------------|
E|--------------------------------------------------------------------------|

e|--------------------------------------------------------------------------|
B|----------------play as many times as you here----------------------------|
G|--------------------------------------------------------------------------|
D|--------------------------------------------------------------------------|
A|---0-0-0----0 0 0 0----0 0 0----0 0 0 0-----------------------------------|
E|---0-0-0----0 0 0 0----0 0 0----0 0 0 0-----------------------------------|

e|---------------------------------------------------------------|play this till the end.
B|---------------------------------------------------------------|
G|------------------10 9-----------------------------------------|
D|--0--------------------------------12--------------10----------|
A|--0----------------------------8---------------8---------------|
E|--0-------------------------8---------------8------------------|


 ===============================================================================

            
            
Suggest correction
Creating personal tab
Creating personal tab
You can edit any tab online and save it as your Personal.

You can edit, replace or remove any tab part or add personal notes – all changes will be seen only by you.

Personal tabs can be accessed anytime from any device, even offline.
Learn more »
Give kudos to tab author, rate the tab!
1 2 3 4 5
comments
print report bad tab
5 comments total. Showing first comments.
+1 reply
riley714 50 Feb 11, 2009 04:49 PM

tuning is drop c#

0 reply
DarkPallace 10 May 28, 2009 07:09 AM

oh its in Drop C#? how do u tune to that? i only know DRop C

0 reply
riley714 50 Jun 13, 2009 03:32 PM

Drop C# would be

C#

guest
You may want to rate the tab now too:
select rating
Wanna post a correction for this tab? Suggest correction