Oops, an error
Loading. Please wait.

We Are The Messengers intro tab

version 1
version 1

Intro

Whole song

Interactive

by Oceana
2,672 views 3 this week
10 commentsread comments
1 2 3 4 5
x 4
add to favorites
×
Save as Personal and add changes to this tab that will be seen only by you. Learn more ›
×
You can save this tab as Personal to edit and correct it or add notes. All changes will be seen only by you. Learn more »
launch autoscroll
font size
0
reset
how to read this tab
guitar tuner
edit
Autoscroll
slow
fast
+/-
esc
set tempo
stop
d#|---------------------------------------------------17~---|
A#|-----------------------------------17----13-17-15--------|
F#|------5-7-10-9-5-12-10-9-10-7---14-----------------------|
C#|--5-5----------------------------------------------------|
G#|---------------------------------------------------------|
C#|---------------------------------------------------------|

d#|---12-13-12-------------------------|
A#|------------13-10-------------------|
F#|------------------12----------------|
C#|---------------------12-------------|
G#|------------------------------------|
C#|------------------------------------|x2

            
            
Suggest correction
Creating personal tab
Creating personal tab
You can edit any tab online and save it as your Personal.

You can edit, replace or remove any tab part or add personal notes – all changes will be seen only by you.

Personal tabs can be accessed anytime from any device, even offline.
Learn more »
comments
print report bad tab
10 comments total. Showing first comments.
0 reply
Me_And_Zoloft 87 Jan 05, 2009 08:29 PM

great tab man, 5 star.
Im in the middle of tabbing 'reach for the sky'

+1 reply
ephemete 50 Apr 04, 2009 05:07 PM

Hey thanks ma this tab is great. I just have one correction, but I might be wrong.

Instead of this in the begging:

d#|-----------
A#|-----------
F#|------5-7--
C#|--5-5------
G#|-----------
C#|-----------

Do this:

d#|-----------
A#|-----------
F#|------5-7--
C#|--5-7------
G#|-----------
C#|-----------

But again, I might be wrong.

Also, could someone please tab out the next part? It's such a cool riff.

0 reply
Hello Astronaut 53 Jun 14, 2009 10:37 AM

next part goes:

E E E E E E E E E E E E Q
D#||--------------------------------------------------------|
A#||--------------------------------------17--18--17--------|
F#||----------------------------------14--------------17----|
C#||----------12--14--12--14--15--17------------------------|
G#||--12--15------------------------------------------------|
C#||--------------------------------------------------------|

and ephemete is right, his version sounds better and more accurate

btw I'm working on the GP tab for this song for quite some time now. you mind if I use your tab in it?

guest
You may want to rate the tab now too:
select rating
Wanna post a correction for this tab? Suggest correction