Oops, an error
Loading. Please wait.

Human chords

version 2
version 2

Whole song

15,676 views 63 this week
6 commentsread comments
1 2 3 4 5
x 39
add to favorites
×
Save as Personal and add changes to this tab that will be seen only by you. Learn more ›
×
You can save this tab as Personal to edit and correct it or add notes. All changes will be seen only by you. Learn more »
launch autoscroll
font size
0
reset
transpose
0
reset
display chords
guitar tuner
edit
Autoscroll
slow
fast
+/-
esc
set tempo
stop
Author
Strumming
There is no strumming pattern for this song yet. and get +5 IQ
Artist: Of Monsters and Men
Song: Human
Album: Beneath The Skin

Tabbed by: Karla Dulay
Email: karladulay@gmail.com

STANDARD TUNING

*So Raggi strums the chords in the chorus, but here is what he plays for the verse and prechorus.
Lyrics and chords are listed after since that is what Nanna plays throughout.


[INTRO AND VERSE]
Guitar 1 (Raggi):
e|----------------------------------------------------------------------------------|
B|------8------8-------------8-------8-----------7------7------------7------7-------|
G|----0------0-------0-----0-------0-----0-----0------0------0-----0------0------0--|
D|----------------------------------------------------------------------------------|
A|--7------7------7-----7-------7------7-----5------5------5-----5------5------5----|
E|----------------------------------------------------------------------------------|                    

e|----------------------------------------------------------------------------------|
B|------5------5-------------5-------5-----------7------7------------7------7-------|
G|----0------0-------0-----0-------0-----0-----0------0------0-----0------0------0--|
D|----------------------------------------------------------------------------------|
A|--3------3------3-----3-------3------3-----5------5------5-----5------5------5----|
E|----------------------------------------------------------------------------------|               
                           (Play through 2x for Intro)
                           (Play through 2x for Verse)


[Pre-Chorus]

e|----------------------------------------------------------------------------------|
B|------5------5-------------5-------5-----------7------7------------7------7-------|
G|----0------0-------0-----0-------0-----0-----0------0------0-----0------0------0--|
D|----------------------------------------------------------------------------------|  (2x)
A|--3------3------3-----3-------3------3-----5------5------5-----5------5------5----|
E|----------------------------------------------------------------------------------|


Also here is the little riff heard throughout the song:
Guitar 3 (Brynjar):
e|--------------------------------------7-7----|
B|--10-10-----10-10-----10-10-----10-10--------|
G|--------9-9-------9-9-------9-9--------------|
D|---------------------------------------------|
A|---------------------------------------------|
E|---------------------------------------------|


*Now here are the chords played throughout


[Verse 1]

          Em
When the words 
  D                 C      D
Weigh heavy on the heart
      Em
I am lost 
     D                C     D
And led only by the stars


[Pre-Chorus]

                  C
Cage me like an animal
                       D
A crown with gems and gold
                 C
Eat me like a cannibal
                 D
Chase the neon throne


[Chorus]

        Em               D
Breathe in, breathe out
               C
Let the human in
        Em               D
Breathe in, breathe out
            C
And let it in
         Em                    D
Plants awoke and they slowly grow
             C
Beneath the skin
           Em               D
So breathe in, breathe out
               C
Let the human in


[Verse 2]

    Em      D
The air is silk
                C    D
Shadows form a grin
      Em     D
If I lose control
                   C     D
I feed the beast within


[Pre-Chorus]

                  C
Cage me like an animal
                       D
A crown with gems and gold
                 C
Eat me like a cannibal
                 D
Chase the neon throne


[Chorus]

        Em               D
Breathe in, breathe out
               C
Let the human in
        Em               D
Breathe in, breathe out
            C
And let it in
         Em                    D
Plants awoke and they slowly grow
             C
Beneath the skin
           Em               D
So breathe in, breathe out
               C
Let the human in


[Bridge]

CHORDS: Em - D - C - D (2x)

Guitar 3 (Brynjar):
e|------------------------------------------------------------------------------------------------|
B|--12-12-12-12-12-12-12-12-12-12-12-12--15-15-15-15----------------------------------------------|
G|---------------------------------------------------14-14-14-14-14-14-14-12-14-14-14-12-14-14-14-|
D|------------------------------------------------------------------------------------------------|
A|------------------------------------------------------------------------------------------------|
E|------------------------------------------------------------------------------------------------|

e|-------------------------------------------------------------------------------------------------|
B|--12------------------------------------------------------12-------------------------------------|
G|------14-12--------------------------14-14-14-12-14-14-14----14-14-14-14-14-14-14-14-14-14-14-14-|
D|------------14-14-14-14-14-14-14-14--------------------------------------------------------------|
A|-------------------------------------------------------------------------------------------------|
E|-------------------------------------------------------------------------------------------------|
                                      (Play through that twice)


[Outro]

                  C
Cage me like an animal
                       D
A crown with gems and gold
                 C
Eat me like a cannibal
                 D
Chase the neon throne
                    Em
If I could only let go

            
            
Suggest correction
Creating personal tab
Creating personal tab
You can edit any tab online and save it as your Personal.

You can edit, replace or remove any tab part or add personal notes – all changes will be seen only by you.

Personal tabs can be accessed anytime from any device, even offline.
Learn more »
comments
print report bad tab
6 comments total. Showing first comments.
0 reply
gustavoaraujo9 3,288 Jun 25, 2015 08:26 AM

Amazing tab. Well done.

Some extra lead (keyboards or guitar 3) parts:

- first one you already tabbed, it plays during the verses, and it's kinda hard to hear. This video helped: https://www.youtube.com/watch?v=BHTMXjd18j4

pre-chorus:
e|----7----7----7----7----7----7----7----7-|----7----7----7----7----7----7-10-7----7-|
B|-10---10---10---10---10---10---10---10---|-10---10---10---10---10---10--------10---|
G|-----------------------------------------|-----------------------------------------|
D|-----------------------------------------|-----------------------------------------|
A|-----------------------------------------|-----------------------------------------|
E|-----------------------------------------|-----------------------------------------|

chorus:
e|----7----7----7----7--10----10----10----10---------(12*)-----|
B|-10---10---10---10-------12----12----12----12----------------|
G|-------------------------------------------------------------|
D|-------------------------------------------------------------|
A|-------------------------------------------------------------|
E|-------------------------------------------------------------|
(i like playing a natural harmonic on this empty space at the end)

solo: (notice the last notes)
e|------------------------------------------------------------------------------------------------|
B|--12-12-12-12-12-12-12-12-12-12-12-12--15-15-15-15----------------------------------------------|
G|---------------------------------------------------14-14-14-14-14-14-14-12-14-14-14-12-14-14-14-|
D|------------------------------------------------------------------------------------------------|
A|------------------------------------------------------------------------------------------------|
E|------------------------------------------------------------------------------------------------|

e|-------------------------------------------------------------------------------------------------|
B|--12------------------------------------------------------12-15-15-15-15-15-15-15-15-15-15-15-15-|
G|------14-12--------------------------14-14-14-12-14-14-14----14-14-14-14-14-14-14-14-14-14-14-14-|
D|------------14-14-14-14-14-14-14-14--------------------------------------------------------------|
A|-------------------------------------------------------------------------------------------------|
E|-------------------------------------------------------------------------------------------------|

outro:
e|----7----7----7----7----7----7----7----7-|----7----7----7----7-10-7----7-10-7----7-|
B|-10---10---10---10---10---10---10---10---|-10---10---10---10--------10--------10---|
G|-----------------------------------------|-----------------------------------------|
D|-----------------------------------------|-----------------------------------------|
A|-----------------------------------------|-----------------------------------------|
E|-----------------------------------------|-----------------------------------------|
(slight variation of the pre-chorus)

0 reply
Wadle10 14 Jul 14, 2015 08:21 AM

How do you pick this. Like with which fingers I don't think I'm doing it right, it sounds terrible. please help!

0 reply
joppe.heming 11 Aug 09, 2015 06:54 AM

Wadle10, I use my thumb index and middle fingers for the picking

guest
You may want to rate the tab now too:
select rating
Wanna post a correction for this tab? Suggest correction