Oops, an error
Loading. Please wait.

King And Lionheart solo tab

version 1
version 1

Solo

Whole song

10,552 views 9 this week
3 commentsread comments
1 2 3 4 5
x 17
add to favorites
×
Save as Personal and add changes to this tab that will be seen only by you. Learn more ›
×
You can save this tab as Personal to edit and correct it or add notes. All changes will be seen only by you. Learn more »
launch autoscroll
font size
0
reset
how to read this tab
guitar tuner
edit
Autoscroll
slow
fast
+/-
esc
set tempo
stop
Author
Difficulty
Capo on third fret

Howling ghosts they reappear in
Mountains that are stacked with fear but
You're a king and I'm a lionheart

e--5---7-5-3-0-3--------5---7-5-3-0-3--------5---7-5-3-0-3--------------------|
B----------------3--------------------3--------------------3-0-5--------------|
G-----------------------------------------------------------------------------|
D------------------(0)------------------(0)-----------------------------------|
A--0---0-0-0-0-0-0------0---0-0-0-0-0-0------0---0-0-0-0-0-0-0-0--------------|
E-----------------------------------------------------------------------------|

            
            
Suggest correction
Creating personal tab
Creating personal tab
You can edit any tab online and save it as your Personal.

You can edit, replace or remove any tab part or add personal notes – all changes will be seen only by you.

Personal tabs can be accessed anytime from any device, even offline.
Learn more »
comments
print report bad tab
3 comments total.
0 reply
guitar0428 48 Jul 08, 2013 01:15 PM

The last three notes I think are wrong....this sounds a bit better to me:

e-----------------
b-----3-3-1-5-----

and these notes are still played with the open a plucking. Wht do you think?

+2 reply
hardyharhar33 12 Jul 19, 2013 01:34 PM

The last three notes are
e---------0------
b-----3-1--------

Great job though!

0 reply
gustavoaraujo9 3,330 May 10, 2014 03:50 PM

e|-5--7-5-3-0-3---|-5--7-5-3-0-3-----|-5--7-5-3-0-3-----0-----------|
B|--------------3-|--------------3-1-|--------------3-1-------------|
G|----------------|------------------|------------------------------|
D|-3--3-3-3-------|-3--3-3-3---------|-3--3-3-3---------------------|
A|----------3-3-3-|----------3-3-3---|----------3-3-3---0-----------|
E|----------------|----------------3-|----------------3-------------|

these are the bass notes matched to the chords.

guest
You may want to rate the tab now too:
select rating
Wanna post a correction for this tab? Suggest correction