Oops, an error
Loading. Please wait.

King And Lionheart Acoustic tab

version 2
version 2

Whole song

5,459 views 39 this week
2 commentsread comments
1 2 3 4 5
x 6
add to favorites
×
Save as Personal and add changes to this tab that will be seen only by you. Learn more ›
×
You can save this tab as Personal to edit and correct it or add notes. All changes will be seen only by you. Learn more »
launch autoscroll
font size
0
reset
how to read this tab
guitar tuner
edit
Autoscroll
slow
fast
+/-
esc
set tempo
stop
Artist: Of Monsters and Men
Song: King and Lionheart (Acoustic Version)

Tabbed by: Karla Dulay
E-mail: karladulay@gmail.com

Tabbed according to this video: 
https://www.youtube.com/watch?v=cx1G8kUKDPc

CAPO 3
[Chord Shapes]
e|---0----|---3---|---5---|---2---|
B|---0----|---0---|---0---|---0---|
G|---7----|---0---|---0---|---0---|
D|---5----|---2---|---4---|---0---|
A|---7----|---3---|---5---|---2---|
E|--------|-------|-------|-------|

[Intro]
e|---0-----------------0-----------------0---------------------------0-0-------|
B|-----0-----------------0-----------------0-------------------------0---0-----|
G|-------7-------7---------7-------7---------7-------7---------7-----7-----7---|
D|-----------5-----------------5-----------------5-------0h5-----5---5---------|
A|---7-----7---7---7---7-----7---7---7---7-----7---7---7-----7-----7-7---------|
E|-----------------------------------------------------------------------------|

[Verse]
e|-0-------------------0-------------------0-------------------0-----------------|-0------------|
B|---0-------------------0-------------------0-------------------0---------------|---0----------|
G|-----7-------7-----------7-------7-----------7-------7-----------7--------7----|-----7--------|
D|---------5-------------------5-------------------5-------------------5---------|--------5---5-|
A|-7-----7---7---7-----7-----7---7---7-----7-----7---7---7-----7-----7---7---7---|-7----7---7---|
E|-------------------------------------------------------------------------------|--------------|  
  {{                           PLAY THROUGH THIS PART TWICE                   }}   ^Last time

"That we won't run..."
e|--3-----------------5------------------0-----------------0----|
B|----0-----------------0------------------0---------------0----|
G|------0-------0---------0--------0---------7-------7-----7----|
D|----------2------------------4-----------------5---------5----|
A|--3-----3---3---3---5------5---5---5---7-----7---7---7---7----|
E|--------------------------------------------------------------|

"And in the winter night sky..."
e|-0-------------------0-------------------0-------------------0-----------------|-0------------|
B|---0-------------------0-------------------0-------------------0---------------|---0----------|
G|-----7-------7-----------7-------7-----------7-------7-----------7--------7----|-----7--------|
D|---------5-------------------5-------------------5-------------------5---------|--------5---5- 
A|-7-----7---7---7-----7-----7---7---7-----7-----7---7---7-----7-----7---7---7---|-7----7---7---|
E|-------------------------------------------------------------------------------|--------------|
  {{                        PLAY THROUGH THIS TWICE                             }}  ^Last time

"And they won't wait..."
e|--3-----------------5-----------------2-----------------3------------------|
B|----0-----------------0-----------------0-----------------0----------------|
G|------0-------0---------0-------0---------0-------0---------0-------0------|
D|----------2-----------------4-----------------0-----------------2----------|
A|--3-----3---3---3---5-----5---5---5---2-----2---2---2---3-----3---3--------|
E|---------------------------------------------------------------------------|

e|--3-----------------5------------------0-----------------0-----|
B|----0-----------------0------------------0---------------0-----|
G|------0-------0---------0--------0---------7-------7-----7-----|
D|----------2------------------4-----------------5---------5-----|
A|--3-----3---3---3---5------5---5---5---7-----7---7---7---7-----|
E|---------------------------------------------------------------|

[Chorus]
"Howling ghost..."
e|--3-----------------5-----------------2-----------------3------------------|
B|----0-----------------0-----------------0-----------------0----------------|
G|------0-------0---------0-------0---------0-------0---------0-------0------|
D|----------2-----------------4-----------------0-----------------2----------|
A|--3-----3---3---3---5-----5---5---5---2-----2---2---2---3-----3---3--------|
E|---------------------------------------------------------------------------|

e|--3-----------------5------------------0-----------------0---------------|
B|----0-----------------0------------------0-----------------0-------------|
G|------0-------0---------0--------0---------7-------7---------7-----------|
D|----------2------------------4-----------------5-----------------5---5---|
A|--3-----3---3---3---5------5---5---5---7-----7---7---7---7-----7---7-----|
E|-------------------------------------------------------------------------|

Play through all of that twice for the chorus

[Verse 2]
e|--0-------------------0-------------------0-------------------0-----------------|--0--|
B|----0-------------------0-------------------0-------------------0---------------|--0--|
G|------7-------7-----------7-------7-----------7-------7-----------7--------7----|--7--|
D|----------5-------------------5-------------------5-------------------5---------|--5--| 
A|--7-----7---7---7-----7-----7---7---7-----7-----7---7---7-----7-----7---7---7---|--7--|
E|--------------------------------------------------------------------------------|-----|
  {                         PLAY THROUGH THIS TWICE                             }   ^last time

"Though far away..."
e|--3-----------------5-----------------2-----------------3------------------|
B|----0-----------------0-----------------0-----------------0----------------|
G|------0-------0---------0-------0---------0-------0---------0-------0------|
D|----------2-----------------4-----------------0-----------------2----------|
A|--3-----3---3---3---5-----5---5---5---2-----2---2---2---3-----3---3--------|
E|---------------------------------------------------------------------------|

e|--3-----------------5------------------0-----------------0--------------|
B|----0-----------------0------------------0-----------------0------------|
G|------0-------0---------0--------0---------7-------7---------7----------|
D|----------2------------------4-----------------5-----------------5---5--|
A|--3-----3---3---3---5------5---5---5---7-----7---7---7---7-----7---7----|
E|------------------------------------------------------------------------|

Repeat chorus

And then repeat this as the outro (Same as intro)
"A lionheart.... A lionheart"
e|---0-----------------0-----------------0---------------------------0-0-------|
B|-----0-----------------0-----------------0-------------------------0---0-----|
G|-------7-------7---------7-------7---------7-------7---------7-----7-----7---|
D|-----------5-----------------5-----------------5-------0h5-----5---5---------|
A|---7-----7---7---7---7-----7---7---7---7-----7---7---7-----7-----7-7---------|
E|-----------------------------------------------------------------------------|

and end on
e|----0-------|
B|----0-------|
G|----7-------|
D|----5-------|
A|----7-------|
E|------------|

************************************

| h  Hammer-on

************************************

            
            
Suggest correction
Creating personal tab
Creating personal tab
You can edit any tab online and save it as your Personal.

You can edit, replace or remove any tab part or add personal notes – all changes will be seen only by you.

Personal tabs can be accessed anytime from any device, even offline.
Learn more »
comments
print report bad tab
2 comments total.
0 reply
thequeenofthecob 10 Sep 19, 2015 12:26 PM

hey, so im terrible at reading tabs, and while i loved your format, what are the chords to play while picking
?

0 reply
kaydulay 362 Sep 20, 2015 05:15 PM

e|---0----|---3---|---5---|---2---|
B|---0----|---0---|---0---|---0---|
G|---7----|---0---|---0---|---0---|
D|---5----|---2---|---4---|---0---|
A|---7----|---3---|---5---|---2---|
E|--------|-------|-------|-------|

It's just these four!

guest
You may want to rate the tab now too:
select rating
Wanna post a correction for this tab? Suggest correction