Oops, an error
Loading. Please wait.

Gallery Piece tab

4,248 views 3 this week
no commentswrite comment
1 2 3 4 5
x 3
add to favorites
×
Save as Personal and add changes to this tab that will be seen only by you. Learn more ›
×
You can save this tab as Personal to edit and correct it or add notes. All changes will be seen only by you. Learn more »
launch autoscroll
font size
0
reset
how to read this tab
guitar tuner
edit
Autoscroll
slow
fast
+/-
esc
set tempo
stop
Author
Fm Eb Fm Eb Fm Eb

Fm        Eb      Fm
I want to be your love
          Eb       Fm
I want to make you cry
              Eb           Fm
And sweep you off your feet

I want to hurt your pride
I want to slap your face
I want to paint your nails

I want to make you scream
I want to braid your hair
I want to kiss your friends

I want to make you laugh
I want to dress the same
I want to defend you

I want to squeeze your thighs
I want to kiss your eyelids
And corrupt your dreams

I want to crash your car
I want to scratch your cheeks
I want to make you sick

I want to sell you out
Want to expose your flaws
I want to steal your things

I want to show you off
I want to tell you lies
I want to write you books

I want to turn you on
I want to make you come
200 times a day

I want to dry your tears
Every time you're sad
I want to be your what's happening

I want to be your only friend

Gbm               Db
I only go all the way
     Eb
This time I'm not pretending
  Ab
I can't take the trash
                        B
Your trashy friends are spreading about us
                Ab
They got like V.D. personalities
                           B
Oh girl, they're so messed up
             G
You see that sculpture on the hill?
                            D      E
That's where she queered me out forever
Db/Eb                 Ebm7                      Bbm
They're monitoring my subconscious massacres, I know
            Ebm                           Db                 Bb
Bringing it closer to the surface so it's easily pervertible

I want to be a beast
I want to make you proud
And play with your head

I want to take you out
Make you feel adored
And buy you everything

I want to hurt you bad
Make you paranoid
And say the sweetest things

I want to help you grow
And for eternity
I want to be your what's happening

What's happening

I see car bombs in your eyes
(clap your hands, clap clap)
(can you sing it?)
I hear angels apologize 



Intro(0:00)

Riff 1 and Bass riff 1 once.
Then all main section riffs with intro solo once.

Riff 1
Guitar
(chords are for the timing with other instruments)
   Fm       Eb  Fm        Eb      Fm        Eb
e|-11111111-10---11111111-10-------11111111-10-----|
b|-9-9-9-9--8----9-9-9-9--8---9----9-9-9-9--8------|
g|----------------------------10-------------------|
d|-------------------------------------------------|
a|-------------------------------------------------|
e|-------------------------------------------------|

Bass riff 1
Bass
   Fm         Eb       Fm         Eb       Fm         Eb
g|---15s17s15-20-18-17---15s17s15----15-17---15s17s15----------|
d|--------------------------------18------------------18-17-15-|
a|-------------------------------------------------------------|
e|-------------------------------------------------------------|

Intro solo
Guitar(with effects)
   Fm       Eb       Fm       Eb       Fm       Eb
e|-15---------------------------------------------|
b|----16-------------16-13----------13----13s16---|
g|-------17-------13-------------15---------------|
d|-------------15----------13----------13---------|
a|------------------------------------------------|
e|------------------------------------------------|

Riff 2
Guitar
(chords are for the timing with other instruments)
   Fm         Eb         Fm         Eb         Fm         Eb
e|-8----8-----8-----6--7-8----8-----8-----6--7-8----8-----8----6--7-|
b|-9--9-9-----9-----8--9-9--9-9-----9-----8--9-9--9-9-----9----8--9-|
g|-10-8-10----10----8--9-10-8-10----10----8--9-10-8-10----10---8--9-|
d|----8---------------------8---------------------8-----------------|
a|------------------------------------------------------------------|
e|------------------------------------------------------------------|

Riff 3
Guitar 1
   Fm      Eb      Fm      Eb      Fm      Eb
e|--------------------------------------------------|
b|-----------------4-4-4-6--------------------------|
g|-5-5-5---3-3-3-----------5-5-5-3---5-5---3-3-3----|
d|-------6-------6-----------------6-----6-------6--|
a|--------------------------------------------------|
e|--------------------------------------------------|
Guitar 2
e|--------------------------------------------------|
b|--------------------------------------------------|
g|-5------------------------------------------------|
d|---6-6-6-5-5-5-6-3-3-3-6-8-8-8-8-6-6-6-6-5-5-5-3--|
a|--------------------------------------------------|
e|--------------------------------------------------|


Bass riff 2
Bass
   Fm         Eb      Fm      Eb      Fm        Eb
g|---10----10---8---8---------------8---10---10---8---9-|
d|----------------------6---6---5-----------------------|
a|-8----8-----6---6---------------6---8----8----6---7---|
e|--------------------4---4---3-------------------------|



Main section(0:12)

All main section riffs.


Bridge(1:24)

Keyboard and bass.
Add pre-chorus fill at the end.

Keyboard
   Gbm     Db  Eb      Ab       B        Ab      B
e|-5-------1---3------------------------------------------|
b|-7-------2---4-------4--------4--------4-------4--------|
g|-6-------1---3-------5--------4--------5-------4--------|
d|-4-------------------6--------4--------6-------4--------|
a|---------4--56----------------2----------------2--------|
e|---------------------4-----------------4----------------|

   G       D   E       Db/Eb Ebm7 Bbm     Ebm Db    Bb
e|----------------------------------------6---9-----10------|
b|-3-------3---5-------6-----7----6-------7---9--9--11------|
g|-4-------2---4-------6-----6----6-----568---10-10-10------|
d|-5-------4---6-------6-----8----8----8---------11-8-------|
a|---------5--67-------6-----6------------6-----------------|
e|-3------------------------------6-----------9-------------|



Bass for middle section


   Gbm                                          Db
g|------11---------11----------11---------11--------------------------|
d|---11----11---11----11----11----11---11----11---15-13-15---15-13-15-|
a|--------------------------------------------------------------------|
e|--------------------------------------------------------------------|
   Eb                                          Ab     
g|--------------------------------------------------13---------13---------13---------13----|
d|---13----13---13----13---13----13---13----13---13----13---13----13---13----13---13----15-|
a|------13---------13---------13---------13------------------------------------------------|
e|-----------------------------------------------------------------------------------------|
   B                                           Ab
g|------16---------16---------16---------16---------13---------13---------13---------13----|
d|---16----16---16----16---16----16---16----15---13----13---13----13---13----13---13----15-|
a|-----------------------------------------------------------------------------------------|
e|-----------------------------------------------------------------------------------------|
   B                                           G
g|------16---------16---------16---------16---------12---------12---------12---------12----|
d|---16----16---16----16---16----16---16----16---12----12---12----12---12----12---14----14-|
a|-----------------------------------------------------------------------------------------|
e|-----------------------------------------------------------------------------------------|
   D                     E
g|------14---------14------------------------------------------------|
d|---16----16---16----16---14----14---14----14---14----14---14----14-|
a|----------------------------14---------14---------14---------14----|
e|-------------------------------------------------------------------|
   Db/Eb                 Ebm7                  Bbm
g|-----------------------------------------------------------------------------------------|
d|---13-13-13---13-13-13---13-13-13---13-13-13---11-13-11---11-13-11---11-13-11---11-13-11-|
a|-----------------------------------------------------------------------------------------|
e|-----------------------------------------------------------------------------------------|
   Ebm                   Db                    Bb
g|--------------------------------------------------15---------15-------|
d|---13-13-13---13-13-13---13-13-13---13-13-13---15----15---15----15-15-|
a|----------------------------------------------------------------------|
e|----------------------------------------------------------------------|






Pre-chorus fill(2:14)
Keyboard
   Bb
e|---------------------|
b|---------------------|
g|----7----------------|
d|-8-------6--8----6---|
a|-------8-------8-----|
e|---------------------|



Main section

Riff 1 x 1

Then all the main section riffs for the rest of the singing.
At 3:18, stop the bass riffs 1 & 2. At 3:30, stop riff 3.

            
            
Suggest correction
Creating personal tab
Creating personal tab
You can edit any tab online and save it as your Personal.

You can edit, replace or remove any tab part or add personal notes – all changes will be seen only by you.

Personal tabs can be accessed anytime from any device, even offline.
Learn more »
Give kudos to tab author, rate the tab!
1 2 3 4 5
comments
print report bad tab
guest
You may want to rate the tab now too:
select rating
Wanna post a correction for this tab? Suggest correction