Oops, an error
Loading. Please wait.

Past Is A Grotesque Animal tab

version 1
version 1

Whole song

3,351 views 6 this week
1 commentread comment
1 2 3 4 5
1 last vote to show rating
add to favorites
×
Save as Personal and add changes to this tab that will be seen only by you. Learn more ›
×
You can save this tab as Personal to edit and correct it or add notes. All changes will be seen only by you. Learn more »
launch autoscroll
font size
0
reset
how to read this tab
guitar tuner
edit
Autoscroll
slow
fast
+/-
esc
set tempo
stop
Author
Difficulty
Its about time i put this up. It took me quite a while to get the background riff and 
i wasnt sure if it was 2 notes left then 2 notes right (in stereo) or 3 notes left etc...

Anyway, here it is:
4 chords throughout song in repeat. Try muting un-noted strings
  Chords:

E--------------|
B--------------|
G---------7----|
D---5--8--7--3-|
A---5--8--5--3-|
E---3--6-----1-|

intro is simply the bass notes(3,6,5,1) played singularly

the riff:

E--------------------|
B--3-3---------------|
G-------0-0----------|
D-----------5-5------|
A----------------5-5-|
E--------------------|

E---------------------|
B---------------------|
G---------------------|
D--7-7-8-8------------|
A-----------8-8-------|
E---------------10-10-|

E--------------------|
B--------------------|
G--0-0---------------|
D------7-7-----------|
A----------8-8-------|
E--------------10-10-|

E------------------|
B------------------|
G--5-5-------------|
D------7-7---------|
A----------7-7-----|
E--------------8-8-|

if you listen to the song you can get the riff, timing etc.
i rated this as intermediate mainly because the riff has slightly weird fingering but a 
practice and you'l be lasting the whole 12 minutes.

            
            
Suggest correction
Creating personal tab
Creating personal tab
You can edit any tab online and save it as your Personal.

You can edit, replace or remove any tab part or add personal notes – all changes will be seen only by you.

Personal tabs can be accessed anytime from any device, even offline.
Learn more »
Give kudos to tab author, rate the tab!
1 2 3 4 5
comments
print report bad tab
1 comment total.
0 reply
valvetronix95 10 May 07, 2017 09:31 AM

Hello, I have some changes about the riff.
You can try this :

E----------------------|
B--3-3-----------------|
G-------0-0------------|
D------------5-5-------|
A-----------------5-5--|
E----------------------|

E----------------------|
B----------------------|
G--3-3-----------------|
D-------3-3------------|
A------------5-5-------|
E-----------------6-6--|

E----------------------|
B----------------------|
G--2-2-----------------|
D-------3-3--0-0-------|
A-----------------0-0--|
E----------------------|

E----------------------|
B--1-1-----------------|
G-------2-2------------|
D------------3-3-------|
A-----------------3-3--|
E----------------------|

I replace the D chord by A sus ( with second and quarter )
and I add C bass for the F chord.
Tell me what do you think !

guest
You may want to rate the tab now too:
select rating
Wanna post a correction for this tab? Suggest correction