Oops, an error
Loading. Please wait.

The New Breed tab

version 1
version 1

Whole song

Interactive

76 views 1 this week
no commentswrite comment
1 2 3 4 5
3 more votes to show rating
add to favorites
×
Save as Personal and add changes to this tab that will be seen only by you. Learn more ›
×
You can save this tab as Personal to edit and correct it or add notes. All changes will be seen only by you. Learn more »
launch autoscroll
font size
0
reset
how to read this tab
guitar tuner
edit
Autoscroll
slow
fast
+/-
esc
set tempo
stop
[The New Breed]
[Son Of The Morning]
[Oh, Sleeper]

Tuning: D A D G B E
Playthrough: https://www.youtube.com/watch?v=FISHIiDZOrw

[Riff 1] - [00:00] - [00:24]
- ------------------------------------------------------------------------------------
- -11-11-11-11-11-11-8-8-8-8-8-8-8/10-10-10-10-10-10-10-10-10-10-10-10-10-10-10-10/11-
- -x--x--x--x--x--x--x-x-x-x-x-x-x-x--x--x--x--x--x--x--x--x--x--x--x--x--x--x--x--x--
- -8--8--8--8--8--8--5-5-5-5-5-5-5/7--7--7--7--7--7--7--7--7--7--7--7--7--7--7--7-/8--
- ------------------------------------------------------------------------------------
- ------------------------------------------------------------------------------------

- ------------------------------------------------------------------------------------
- -11-11-11-11-11-11-8-8-8-8-8-8-8/10-10-10-10-10-10-10-10-10-10-10-10-10-10-10-10/15-
- -x--x--x--x--x--x--x-x-x-x-x-x-x-x--x--x--x--x--x--x--x--x--x--x--x--x--x--x--x--x--
- -8--8--8--8--8--8--5-5-5-5-5-5-5/7--7--7--7--7--7--7--7--7--7--7--7--7--7--7--7-/12-
- ------------------------------------------------------------------------------------
- ------------------------------------------------------------------------------------

- -------------------------------------------------------------------------------------------------
- -15-15-15-15-15-15-11-11-11-11-11-11-11-11-11/13-13-13-13-13-13-13-13-13-13-13-13-13-13-13-13/15-
- -x--x--x--x--x--x--x--x--x--x--x--x--x--x--x--x--x--x--x--x--x--x--x--x--x--x--x--x--x--x--x--x--
- -12-12-12-12-12-12-8--8--8--8--8--8--8--8--8-/10-10-10-10-10-10-10-10-10-10-10-10-10-10-10-10/12-
- -------------------------------------------------------------------------------------------------
- -------------------------------------------------------------------------------------------------

- --------------------------------------------------------------------------------------------------
- -15-15-15-15-15-15-11-11-11-11-11-11-11-11-11/13-13-13-13-13-13-13-13-13-13-13-13-13b13b13b13b13b-
- -x--x--x--x--x--x--x--x--x--x--x--x--x--x--x--x--x--x--x--x--x--x--x--x--x--x--x--x--x--x--x--x---
- -12-12-12-12-12-12-8--8--8--8--8--8--8--8--8-/10-10-10-10-10-10-10-10-10-10-10-10-10-10-10-10-13--
- --------------------------------------------------------------------------------------------------
- --------------------------------------------------------------------------------------------------

[Riff 2] - [00:24] - [00:48]
- ---------------------------------------------------------------------------------
- -----10-10-10-10-----11-11-11-11-------------10-10-10-10-----11-11-11-11---------
- -----x--x--x--x------x--x--x--x--------------x--x--x--x------x--x--x--x------2---
- -5---7--7--7--7--5---8--8--8--8----------5---7--7--7--7--5---8--8--8--8----------
- -5---------------5---------------5---3---5---------------5---------------3-----1-
- -5---------------5-----------------3---1-5---------------5-----------------1-----

- -------------------------------------------------------------------------
- -----10-10-10-10-----11-11-11-11-----------------------------------------
- -----x--x--x--x------x--x--x--x------------------------------------------
- -5---7--7--7--7--5---8--8--8--8--------------5-----------5---5---5---5---
- -5---------------5---------------5---3---1/3---------3h6---6---6---6---6-
- -5---------------5-----------------3---1---------------------------------

- ---------------------------------------------------------------------------------
- -----10-10-10-10-----11-11-11-11-------------10-10-10-10-----11-11-11-11---------
- -----x--x--x--x------x--x--x--x--------------x--x--x--x------x--x--x--x------2---
- -5---7--7--7--7--5---8--8--8--8----------5---7--7--7--7--5---8--8--8--8----------
- -5---------------5---------------5---3---5---------------5---------------3-----1-
- -5---------------5-----------------3---1-5---------------5-----------------1-----

- -------------------------------------------------------------------------
- -----10-10-10-10-----11-11-11-11---------------------------------7-7-7-7-
- -----x--x--x--x------x--x--x--x----------------------------------0-0-0-0-
- -5---7--7--7--7--5---8--8--8--8--------------5-----------5---5---4-4-4-4-
- -5---------------5---------------5---3---1/3---------3h6---6---6---------
- -5---------------5-----------------3---1---------------------------------


[Riff 3] - [00:48] - [00:57] - [x2]
   T        T    T        T    T        T
- -------------------------------------------------------
- -------------------------------------------7-7-7-7-7-7-
- -15p0h3h5-12p0-15p0h3h5-12p0-15p0h3h5-12p0-0-0-0-0-0-0-
- -------------------------------------------4-4-4-4-4-4-
- -------------------------------------------------------
- -------------------------------------------------------

[Riff 4a] - [00:57] - [01:15]
   T          T    T          T    T          T    T
- ----------------------------------------------------------------
- ----------------------------------------------------------------
- -12p0h3h5h7-10p7-12p0h3h5h7-10p7-12p0h3h5h7-10p7-12p0h3h5h7p5p3-
- ----------------------------------------------------------------
- ----------------------------------------------------------------
- ----------------------------------------------------------------

   T           T     T           T     T             T     T             T
- -----------------------------------------------------------------------17p5-
- ----------------------------------------------------------------------------
- -14p0h7h8h10-12p10-14p0h7h8h10-12p10-14p0h10h12h14-15p14-14p0h10h12h14------
- ----------------------------------------------------------------------------
- ----------------------------------------------------------------------------
- ----------------------------------------------------------------------------

   T    T    T    T    T    T    T    T    T    T    T    T
- -------------------------------------------------------------
- -------------------------------------------------------------
- -15p2-14p2-19p2-15p2-14p2-19p2-15p2-14p2-19p2-15p2-14p2-19p2-
- -------------------------------------------------------------
- -------------------------------------------------------------
- -------------------------------------------------------------


   T    T    T    T    T    T    T    T    T    T
- -------------------------------22p5-20p5-18p5-17----------
- ----------------------------------------------------------
- -17p2-18p2-22p2-17p2-18p2-22p2----------------------------
- ----------------------------------------------------------
- ----------------------------------------------------------
- ----------------------------------------------------------

[Riff 4b] - [00:57] - [01:15]
- -------------------------------------------------
- -8-8-8-8-8-8-8-8-8-8-8-8-8-8-8-8-8-8-8-8-8-8-8-8-
- -x-x-x-x-x-x-x-x-x-x-x-x-x-x-x-x-x-x-x-x-x-x-x-x-
- -5-5-5-5-5-5-5-5-5-5-5-5-5-5-5-5-5-5-5-5-5-5-5-5-
- -------------------------------------------------
- -------------------------------------------------

- -------------------------------------------------------------------------
- -10-10-10-10-10-10-10-10-10-10-10-10-10-10-10-10-10-10-10-10-10-10-10-10-
- -0--0--0--0--0--0--0--0--0--0--0--0--0--0--0--0--0--0--0--0--0--0--0--0--
- -7--7--7--7--7--7--7--7--7--7--7--7--7--7--7--7--7--7--7--7--7--7--7--7--
- -------------------------------------------------------------------------
- -------------------------------------------------------------------------

- -------------------------------------------------
- -------------------------------------------------
- -3-3-3-3-3-3-3-3-3-3-3-3-3-3-3-3-3-3-3-3-3-3-3-3-
- -x-x-x-x-x-x-x-x-x-x-x-x-x-x-x-x-x-x-x-x-x-x-x-x-
- -1-1-1-1-1-1-1-1-1-1-1-1-1-1-1-1-1-1-1-1-1-1-1-1-
- -------------------------------------------------

- -------------------------------------------------
- -------------------------------------------------
- -2-2-2-2-2-2-2-2-2-2-2-2-7-7-5-5-3-3-------------
- -x-x-x-x-x-x-x-x-x-x-x-x-x-x-x-x-x-x-0-----------
- -0-0-0-0-0-0-0-0-0-0-0-0-5-5-3-3-1-1-0-----------
- -------------------------------------0-----------


[Riff 5a, Guitar 1 & 2] - [01:15] - [01:26]
- -----------------------------------------------------------------
- -----------------------------------------------------------------
- -----------------------------------------------------------------
- -5-5-5-5-5-5-1-1-1-1-1-1-1-1-1-1-5-5-5-5-5-5-1-1-1-1-1-1-1-1-1-1-
- -5-5-5-5-5-5-1-1-1-1-1-1-1-1-1-1-5-5-5-5-5-5-1-1-1-1-1-1-1-1-1-1-
- -5-5-5-5-5-5-1-1-1-1-1-1-1-1-1-1-5-5-5-5-5-5-1-1-1-1-1-1-1-1-1-1-
-
- -----------------------------------------------------------------
- -----------------------------------------------------------------
- -----------------------------------------------------------------
- -5-5-5-5-5-5-1-1-1-1-1-1-1-1-1-1-5-5-5-5-5-5-1-1-1-1-1-1-1-1-1-1-
- -5-5-5-5-5-5-1-1-1-1-1-1-1-1-1-1-5-5-5-5-5-5-1-1-1-1-1-1-1-1-1-1-
- -5-5-5-5-5-5-1-1-1-1-1-1-1-1-1-1-5-5-5-5-5-5-1-1-1-1-1-1-1-1-1-1-


- -----------------------------------------------------------------------
- --------------------------------------------------------------------10-
- -------------------------------------------5/7-10-----------8/10-12----
- -5-5-5-5-5-5-1-1-1-1-1-1-1-1-1-1-----5/7-8--------7h8-10/12------------
- -5-5-5-5-5-5-1-1-1-1-1-1-1-1-1-1-1/3-----------------------------------
- -5-5-5-5-5-5-1-1-1-1-1-1-1-1-1-1---------------------------------------
-
- -----------------------------------------------------------------------
- -----------------------------------------------------------------------
- -----------------------------------------------------------------------
- -5-5-5-5-5-5-1-1-1-1-1-1-1-1-1-1-----5------------5---5-----5----5-----
- -5-5-5-5-5-5-1-1-1-1-1-1-1-1-1-1-1/3---------3h6----6----6----6-----6--
- -5-5-5-5-5-5-1-1-1-1-1-1-1-1-1-1---------------------------------------


[Riff 6b] - [01:15] - [01:26]
- -----------------------------------------------------------------------------------------
- -11-11-8-8-----11-11-11\10-10-10-10-10-10-10-11-11-8-8-----11-11-11\10-10-10-10-10-10-10-
- -x--x--x-x-7-7-x--x--x--x--x--x--x--x--x--x--x--x--x-x-7-7-x--x--x--x--x--x--x--x--x--x--
- -8--8--5-5-x-x-8--8--8-\7--7--7--7--7--7--7--8--8--5-5-x-x-8--8--8-\7--7--7--7--7--7--7--
- -----------5-5-----------------------------------------5-5-------------------------------
- -----------------------------------------------------------------------------------------

- --------------------------------------------------------------------------------------
- -11-11-11-8-8-8-11-11-11\10-10-10-10-10-10-10-11-11-11-11-11-11-11-11-----------------
- -x--x--x--x-x-x-x--x--x--x--x--x--x--x--x--x--x--x--x--x--x--x--x--x--7-7-7-7-7-7-7-7-
- -8--8--8--5-5-5-8--8--8-\7--7--7--7--7--7--7--8--8--8--8--8--8--8--8--x-x-x-x-x-x-x-x-
- ----------------------------------------------------------------------5-5-5-5-5-5-5-5-
- --------------------------------------------------------------------------------------


[Riff 7, Guitar 1 & 2] - [01:26] - [01:38]
- -----------------------------------------------------------------
- -----------------------------------------------------------------
- ---------2h3-----------------------------2h3---------------------
- -0-0-0-0-----------0h3---5p1h3---0-0-0-0-----------0h3---5p1h3---
- -----------------------------------------------------------------
- -------------1-1-1-----3-------3-------------1-1-1-----3-------3-
PM .......     .....     .       .........     .....     .       .
- -----------------------------------------------------------------
- -----------------------------------------------------------------
- -----------------------------------------------------------------
- -5-5-5-------1-1-1---------------5-5-5-------1-1-1---------------
- -5-5-5-------1-1-1---------------5-5-5-------1-1-1---------------
- -5-5-5-------1-1-1---------------5-5-5-------1-1-1---------------


- -----------------------------------------------------------------
- -----------------------------------------------------------------
- ---------2h3-----------------------------------------------------
- -0-0-0-0-----------0h3---5p1h3-------------------5---5---5---5---
- ---------------------------------1/3---------3h6---6---6---6---6-
- -------------1-1-1-----3-------3---------------------------------
PM .......     .....     .       .
- -----------------------------------------------------------------
- -----------------------------------------------------------------
- -----------------------------------------------------------------
- -5-5-5-------1-1-1-------------------------------5---5---5---5---
- -5-5-5-------1-1-1---------------1/3---------3h6---6---6---6---6-
- -5-5-5-------1-1-1-----------------------------------------------


[Riff 8] - [01:38] - [02:02]
- ---------------------------------------------------------------------------------
- -----10-10-10-10-----11-11-11-11-------------10-10-10-10-----11-11-11-11---------
- -----x--x--x--x------x--x--x--x--------------x--x--x--x------x--x--x--x------2---
- -5---7--7--7--7--5---8--8--8--8----------5---7--7--7--7--5---8--8--8--8----------
- -5---------------5---------------5---3---5---------------5---------------3-----1-
- -5---------------5-----------------3---1-5---------------5-----------------1-----

- -------------------------------------------------------------------------
- -----10-10-10-10-----11-11-11-11-----------------------------------------
- -----x--x--x--x------x--x--x--x------------------------------------------
- -5---7--7--7--7--5---8--8--8--8--------------5-----------5---5---5---5---
- -5---------------5---------------5---3---1/3---------3h6---6---6---6---6-
- -5---------------5-----------------3---1---------------------------------

- ---------------------------------------------------------------------------------
- -----10-10-10-10-----11-11-11-11-------------10-10-10-10-----11-11-11-11---------
- -----x--x--x--x------x--x--x--x--------------x--x--x--x------x--x--x--x----------
- -5---7--7--7--7--5---8--8--8--8--0-x---x-5---7--7--7--7--5---8--8--8--8--0-x---x-
- -5---------------5---------------0-x---x-5---------------5---------------0-x---x-
- -5---------------5---------------0-x---x-5---------------5---------------0-x---x-

- -------------------------------------------------------------------------
- -----10-10-10-10-----11-11-11-11---------------------------------7-7-7-7-
- -----x--x--x--x------x--x--x--x----------------------------------0-0-0-0-
- -5---7--7--7--7--5---8--8--8--8--------------5-----------5---5---4-4-4-4-
- -5---------------5---------------5---3---1/3---------3h6---6---6---------
- -5---------------5-----------------3---1---------------------------------

[Riff 9a] - [02:02] - [02:05]
- -----------------------------------------
- -10-10-10-10-10-10-10-10-----------------
- -0--0--0--0--0--0--0--0--7-7-7-7-7-7-7-7-
- -8--8--8--8--8--8--8--8--0-0-0-0-0-0-0-0-
- -------------------------6-6-6-6-6-6-6-6-
- -----------------------------------------

[Riff 9b] - [02:02] - [02:05]
- -------------------------------------------------------------------------15--------------
- ----------------------------------------------------------------15h16h18-----------------
- ----------------14-15-14-14h15h17p15p14----------------14h15h17--------------------------
- -------13-15-17-------------------------17p15p13h15h17-----------------------------------
- -15-17-----------------------------------------------------------------------------------
- -----------------------------------------------------------------------------------------


[Riff 10a, Guitar 1 & 2] - [02:05] - [02:32]
- -----------------------------------------------------------------
- -----------------------------------------------------------------
- -----------------2-----------------------------------------------
- -------5---------5-----------------------------------------------
- -1/3-------------6-----------------------------------------------
- -------------1---------------------------------------------------
-
- -----------------------------------------------------------------
- -----------------------------------------------------------------
- -----------------------------------------------------------------
- -------5---------0-----------------------------------------------
- -1/3-------------3-----------------------------------------------
- -------------1---1-----------------------------------------------


- -----------------------------------------------------------------
- -----------------------------------------------------------------
- -----------------------------------------------------------------
- -------5---------0-----------------------------------------------
- -1/3-------------3-----------------------------------------------
- -------------1---1-----------------------------------------------
-
- -----------------------------------------------------------------
- -----------------------------------------------------------------
- -----------------2-----------------------------------------------
- -------5---------5-----------------------------------------------
- -1/3-------------6-----------------------------------------------
- -------------1---------------------------------------------------


- -----------------------------------------------------------------
- -----------------------------------------------------------------
- -------3---------3-----------------------------------------------
- -----------------0-----------------------------------------------
- -3/5-------------1-----------------------------------------------
- -------------0---------------------------------------------------
-
- -----------------------------------------------------------------
- -----------------------------------------------------------------
- -------3---------3-----------------------------------------------
- -----------------0-----------------------------------------------
- -3/5-------------1-----------------------------------------------
- -------------0---------------------------------------------------


- -----------------------------------------------------------------
- -----------------------------------------------------------------
- -------3---------3-----------------------------------------------
- -----------------0-----------------------------------------------
- -3/5-------------1-----------------------------------------------
- -------------0---------------------------------------------------
-
- -----------------------------------------------------------------
- -----------------------------------------------------------------
- -------3---------3-----------------------------------------------
- -----------------0-----------------------------------------------
- -3/5-------------1-----------------------------------------------
- -------------0---------------------------------------------------


- ---------------------------------
- ---------------------------------
- -----------------------3---------
- -------5-------------------------
- -1/3-------------3/5-------------
- -------------1---------------0---
-
- ---------------------------------
- ---------------------------------
- -----------------------3---------
- -------5-------------------------
- -1/3-------------3/5-------------
- -------------1---------------0---


[Riff 10b] - [02:08] & [02:!4]
   T
- -----------------------------------
- -----------------------------------
- -15p0h3h5-/12p10-0h7h8p7-0h3h5p3p0-
- -----------------------------------
- -----------------------------------
- -----------------------------------

[Riff 11a] - [02:32] - [02:55] - [x4]
- -----------------------------------------------------------------
- -----------------------------------------------------------------
- -----------------------------------------------------------------
- -5-5-5-5-5-5-5-5-5-5-5-5-5-5-5-5-1-1-1-1-1-1-1-1-1-1-1-1-1-1-1-1-
- -5-5-5-5-5-5-5-5-5-5-5-5-5-5-5-5-1-1-1-1-1-1-1-1-1-1-1-1-1-1-1-1-
- -5-5-5-5-5-5-5-5-5-5-5-5-5-5-5-5-1-1-1-1-1-1-1-1-1-1-1-1-1-1-1-1-

[Riff 11b] - [02:32] - [02:43] - [x2]
- -----------------------------------------------------------------
- -3---3---3---3---3---3---3---3-----------------------------------
- ---3---3---3---3---3---3---3---3-3---3---3---3---5---5---3---3---
- -----------------------------------5---5---5---5---5---5---5---5-
- -----------------------------------------------------------------
- -----------------------------------------------------------------

[Riff 11c] - [02:43] - [02:55] - [x2]
                             T    T    T         T    T    T         T    T 
- -----------------------------------------------------------------------------
- -----------------------------------------------------------------------------
- -3p0-3/7-10p0-8p0-8p0-8/12-14p0-14p0-15p0h8h10-15p0-15p0-15p0h8h10-15p0-15p0-
- -----------------------------------------------------------------------------
- -----------------------------------------------------------------------------
- -----------------------------------------------------------------------------

[Riff 12a] - [02:55] - [02:59]
- -------------------------------------------------
- -10-10-10-10-10-10-10-10-------------------------
- -0--0--0--0--0--0--0--0--7-7-7-7-7-7-7-7-0-------
- -8--8--8--8--8--8--8--8--0-0-0-0-0-0-0-0-8\--0---
- -------------------------6-6-6-6-6-6-6-6-10\-0---
- ---------------------------------------------0---

[Riff 12b] - [02:55] - [02:59]
- -------------------------------------------------------------------------15------
- ----------------------------------------------------------------15h16h18---------
- ----------------14-15-14-14h15h17p15p14----------------14h15h17------------------
- -------13-15-17-------------------------17p15p13h15h17---------------------------
- -15-17---------------------------------------------------------------------------
- ---------------------------------------------------------------------------------


[Riff 13, Guitar 1 & 2] - [02:59] - [03:47]
- ---------------------------------------------------------------------
- ---------------------------------------------------------------------
- -------------------------------------------------------------0-------
- -5\------------------------------1---------------------------8\--0---
- -5\-------------------------6\---1---------------------------10\-0---
- -5\--------------------8-10----0-1---------------------10-10-----0---
-
- ---------------------------------------------------------------------
- ---------------------------------------------------------------------
- ---7\3-0h3-5/12p0-10p0-------------2-------0h5h8-0h7p0-------0-------
- -5-------------------------------1---3/5-5-------------------8\--0---
- -5--------------------------6\---1---------------------------10\-0---
- -5---------------------8-10----0-1---------------------10-10-----0---


- ---------------------------------------------------------------------
- ---------------------------------------------------------------------
- -------------------------------------------------------------0-------
- -5\------------------------------1---------------------------8\--0---
- -5\-------------------------6\---1---------------------------10\-0---
- -5\--------------------8-10----0-1---------------------10-10-----0---
-
- ---------------------------------------------------------------------
- ---------------------------------------------------------------------
- ---7\3-0h3-5/12p0-10p0-------------2-------0h5h8-0h7p0-------0-------
- -5-------------------------------1---3/5-5-------------------8\--0---
- -5--------------------------6\---1---------------------------10\-0---
- -5---------------------8-10----0-1---------------------10-10-----0---


- ---------------------------------------------------------------------
- ---------------------------------------------------------------------
- -------------------------------------------------------------0-------
- ---8\3-3/5-7/13p0-12p0-------------3p1---0-5h7/10-0h8p0------8\--0---
- -5--------------------------6\---1-----3---------------------10\-0---
- -5---------------------8-10----0-1---------------------10-10-----0---
PM .                               .
- ---------------------------------------------------------------------
- ---------------------------------------------------------------------
- ---7\3-0h3-5/12p0-10p0-------------2-------0h5h8p0-7p0-------0-------
- -5-------------------------------1---3/5-5-------------------8\--0---
- -5--------------------------6\---1---------------------------10\-0---
- -5---------------------8-10----0-1---------------------10-10-----0---


- -------------------------------------------------------------------------------------
- -------------------------------------------------------------------------------------
- -------------------------------------------------------------0-----------------------
- ---8\3-3/5-7/13p0-12p0-------------3p1---0-5h7/10-0h8p0------8\--0---5---------------
- -5--------------------------6\---1-----3---------------------10\-0---5---------------
- -5---------------------8-10----0-1---------------------10-10-----0---5---------------
PM .                               .
- -------------------------------------------------------------------------------------
- -------------------------------------------------------------------------------------
- ---7\3-0h3-5/12p0-10p0-------------2-------0h5h8p0-7p0-------0-----------------------
- -5-------------------------------1---3/5-5-------------------8\--0---5---------------
- -5--------------------------6\---1---------------------------10\-0---5---------------
- -5---------------------8-10----0-1---------------------10-10-----0---5---------------

[Symbols]

PM... Palm Mute notes with (...) under them
AP... Alternate Pick notes with (...) under them
h     Hammer On
p     Pull Off
[ ]   Harmonic
/     Slide Up
\     Slide Down
x     Dead Note
b     Bend
hb    Hold Bend
pb    Pre-Bend
r     Release Bend
(x )  Play Notes x amount of times
~     Let Ring
\\\   Pick Slide Down
///   Pick Slide Up
/ 3 \ Notes are triplets (3 notes in the space of two)
w\    Whammy Bar Down
w/    Whammy Bar Up
wh    Whammy Bar Hold
T     Right Hand Tap
L     Left Hand Tap

:)

            
            
Suggest correction
Creating personal tab
Creating personal tab
You can edit any tab online and save it as your Personal.

You can edit, replace or remove any tab part or add personal notes – all changes will be seen only by you.

Personal tabs can be accessed anytime from any device, even offline.
Learn more »
Give kudos to tab author, rate the tab!
1 2 3 4 5
comments
print report bad tab
guest
You may want to rate the tab now too:
select rating
Wanna post a correction for this tab? Suggest correction