Oops, an error
Loading. Please wait.

Dont Ask Me tab

version 2
version 2

Whole song

by OK Go
7,089 views 3 this week
6 commentsread comments
1 2 3 4 5
x 10
add to favorites
×
Save as Personal and add changes to this tab that will be seen only by you. Learn more ›
×
You can save this tab as Personal to edit and correct it or add notes. All changes will be seen only by you. Learn more »
launch autoscroll
font size
0
reset
how to read this tab
guitar tuner
edit
Autoscroll
slow
fast
+/-
esc
set tempo
stop
Author
Band: okgo
Song: dont ask me.

standard tuning:
Eadgbe

      intro x2 then verse x2
 e----------------------------------------------------------------|
 b----------------------------------------------------------------|
 g----5------------7--10-10---------------------------------------|
 d----5---5---7----7--10-10---------------------------------------|
 a----3---5---7----5--8--8----------------------------------------|
 E--------3---5---------------------------------------------------|

       pre chorus
 e----------------------------------------------------------------|
 b----------------------------------------------------------------|
 g------5-5-5-----------------------------------------------------|
 d------5-5-5--5s9--10-10-----------------------------------------|
 a------3-3-3--5s9--10-10-----------------------------------------|
 E-------------3s7--8--8------------------------------------------|

        chorus
 e----------------------------------------------------------------|
 b----------------------------------------------------------------|
 g----5555-----------77-1010--------------------------------------|
 d----5555-5555-7777-77-1010--------------------------------------|
 a----3333-5555-7777-55-8-8---------------------------------------|
 E---------3333-5555----------------------------------------------|

 e----------------------------------------------------------------|
 b----------------------------------------------------------------|
 g----5555--------------------------------------------------------|
 d----5555-5555-3333-55-------------------------------------------|
 a----3333-5555-3333-55-------------------------------------------|
 E---------3333-1111-33-------------------------------------------|

       verse x4
 e----------------------------------------------------------------|
 b----------------------------------------------------------------|
 g----5------------7--10-10---------------------------------------|
 d----5---5---7----7--10-10---------------------------------------|
 a----3---5---7----5--8--8----------------------------------------|
 E--------3---5---------------------------------------------------|

       pre chorus
 e----------------------------------------------------------------|
 b----------------------------------------------------------------|
 g------5-5-5-----------------------------------------------------|
 d------5-5-5--5s9--10-10-----------------------------------------|
 a------3-3-3--5s9--10-10-----------------------------------------|
 E-------------3s7--8--8------------------------------------------|

        chorus
 e----------------------------------------------------------------|
 b----------------------------------------------------------------|
 g----5555-----------77-1010--------------------------------------|
 d----5555-5555-7777-77-1010--------------------------------------|
 a----3333-5555-7777-55-8-8---------------------------------------|
 E---------3333-5555----------------------------------------------|

 e----------------------------------------------------------------|
 b----------------------------------------------------------------|
 g----5555--------------------------------------------------------|
 d----5555-5555-3333-55-------------------------------------------|
 a----3333-5555-3333-55-------------------------------------------|
 E---------3333-1111-33-------------------------------------------|

        interlude
 e----------------------------------------------------------------|
 b----------------------------------------------------------------|
 g----5555-9999-7777-10101010-----5--9---------7777-121212--------|
 d----5555-9999-7777-10101010-----5--9--7------7777-121212--------|
 a----3333-7777-5555-8-8-8-8------3--7--7------5555-101010--------|
 E--------------------------------------5-------------------------|

    x2                      (2nd time only)
 e----------------------------------------------------------------|
 b----------------------------------------------------------------|
 g----5------------7--10-10------(5)------------------------------|
 d----5---5---7----7--10-10------(5)------------------------------|
 a----3---5---7----5--8--8-------(3)------------------------------|
 E--------3---5---------------------------------------------------|


 e----------------------------------------------------------------|
 b----------------------------------------------------------------|
 g----5------------7--10-10---------------------------------------|
 d----5-------7----7--10-10---------------------------------------|
 a----3-------7----5--8--8----------------------------------------|
 E------------5---------------------------------------------------|

     chorus
 e----------------------------------------------------------------|
 b----------------------------------------------------------------|
 g----5555-----------77-1010--------------------------------------|
 d----5555-5555-7777-77-1010--------------------------------------|
 a----3333-5555-7777-55-8-8---------------------------------------|
 E---------3333-5555----------------------------------------------|

 e----------------------------------------------------------------|
 b----------------------------------------------------------------|
 g----5555--------------------------------------------------------|
 d----5555-5555-3333-5555-----------------------------------------|
 a----3333-5555-3333-5555-----------------------------------------|
 E---------3333-1111-3333-----------------------------------------|

 x4  bit confusing but just listen to the song starts 2.03 mins in
 e----------------------------------------------------------------|
 b----------------------------------------------------------------|
 g----5555--------------------------------------------------------|
 d----5555-5555-7777-66-------------------------------------------|
 a----3333-5555-7777-66-------------------------------------------|
 E---------3333-5555-44-------------------------------------------|

        x3
 e----------------------------------------------------------------|
 b----------------------------------------------------------------|
 g----5555-----------77-1010--------------------------------------|
 d----5555-5555-7777-77-1010--------------------------------------|
 a----3333-5555-7777-55-8-8---------------------------------------|
 E---------3333-5555----------------------------------------------|

       outro
 e----------------------------------------------------------------|
 b----------------------------------------------------------------|
 g----5555----------------5~--------------------------------------|
 d----5555-5555-3333-55---5~--let-ring----------------------------|
 a----3333-5555-3333-55---3~--------------------------------------|
 E---------3333-1111-33-------------------------------------------|


   tabbed by angus

            
            
Suggest correction
Creating personal tab
Creating personal tab
You can edit any tab online and save it as your Personal.

You can edit, replace or remove any tab part or add personal notes – all changes will be seen only by you.

Personal tabs can be accessed anytime from any device, even offline.
Learn more »
comments
print report bad tab
6 comments total. Showing first comments. show 1 bad comment
0 reply
angus h 30 Sep 02, 2005 08:00 PM

~~~~~~~~~~~~~~~~~~~~~~~~~~~~~~~~~~~~~~~~~~~~~~~~
[ correction! ]
[ F A ]
[ ]
[ anywhere i put E-1-- it should be E-5-- ]
[ a-3-- a-7-- ]
[ d-3-- d-7-- ]
[ g-- g-- ]
[ b-- b-- ]
[ e-- e-- ]
~~~~~~~~~~~~~~~~~~~~~~~~~~~~~~~~~~~~~~~~~~~~~~

0 reply
red_connys 30 Aug 30, 2007 07:54 AM

its good a little hard to follow the song pattern tho

guest
You may want to rate the tab now too:
select rating
Wanna post a correction for this tab? Suggest correction