Oops, an error
Loading. Please wait.
We have an official Get Over It tab made by UG professional guitarists. Check out the tab »
×
by OK Go
3,469 views 3 this week
1 commentread comment
1 2 3 4 5
x 13
add to favorites
×
Save as Personal and add changes to this tab that will be seen only by you. Learn more ›
×
You can save this tab as Personal to edit and correct it or add notes. All changes will be seen only by you. Learn more »
launch autoscroll
font size
0
reset
how to read this tab
guitar tuner
edit
Autoscroll
slow
fast
+/-
esc
set tempo
stop
Verse-

-----------------------------------------------
-----------------------------------------------
-----------------------------------------X6----
--9----9----444--3--2--2--777--888--99---------
--9----9----444--3--2--2--777--888--99---------
--7----7----222--1--0--0--555--666--77---------


Chorus-

-----------------------------------------------
-----------------------------------------------
--7--7--------------------------X2-------------
--7--7--4444--5--5--7777-----------------------
--5--5--4444--5--5--7777-----------------------
--------2222--3--3--5555-----------------------

-----------------------------------------------
-----------------------------------------------
--7--7-----------------------------------------
--7--7--4444--5--5--7777--55555555-44444444----
--5--5--4444--5--5--7777--55555555-44444444----
--------2222--3--3--5555--33333333-22222222----


End on-

------
------
------
--9---
--9---
--7---

            
            
Suggest correction
Creating personal tab
Creating personal tab
You can edit any tab online and save it as your Personal.

You can edit, replace or remove any tab part or add personal notes – all changes will be seen only by you.

Personal tabs can be accessed anytime from any device, even offline.
Learn more »
comments
print report bad tab
1 comment total.
0 reply
repsak 51 May 03, 2004 08:00 PM

Sorry, the intro is completely wrong, the rest too! It goes like this and should be played shuffled:

x|-1---+---2---+---3---+---4---+---|-1---+---2---+---3---+---4---+---|

E|---------------------------------|---------------------------------|
B|---------------------------------|---------------------------------|
G|-4-------4-----------------------|---------------2-2-----3-3---4-4-|
D|-4-------4-------x-4-4---4---3---|-2-------2-----2-2-----3-3---4-4-|
A|-2-------2-------x-4-4---4---3---|-2-------2-----0-0-----1-1---2-2-|
E|-----------------x-2-2---2---1---|-0-------0-----------------------|

I don't want to tab the whole song but I can send sheet music by mail.

Kasper Dziurdz

guest
Wanna post a correction for this tab? Suggest correction