Oops, an error
Loading. Please wait.
We have an official Here It Goes Again tab made by UG professional guitarists. Check out the tab »
×
by OK Go
132,274 views 87 this week
20 commentsread comments
1 2 3 4 5
x 75
add to favorites
×
Save as Personal and add changes to this tab that will be seen only by you. Learn more ›
×
You can save this tab as Personal to edit and correct it or add notes. All changes will be seen only by you. Learn more »
launch autoscroll
font size
0
reset
how to read this tab
guitar tuner
backing track
0:00
0:00
edit
Autoscroll
slow
fast
+/-
esc
set tempo
stop
Author
Difficulty
intermediate
For the intro and verse play the first note then palm mute the rest 
but ease of the mute and play softly.


[Intro]

Part 1

PM  - - - - - - - - - - - - - - -
e|---------------------------------------------------------------------------|
B|---------------------------------------------------------------------------|
G|5-5-5-5-5-5-5-5-5-5-5-5-5-5-5-5--------------------------------------------|
D|5-5-5-5-5-5-5-5-5-5-5-5-5-5-5-5--------------------------------------------|
A|3-3-3-3-3-3-3-3-3-3-3-3-3-3-3-3--------------------------------------------|
E|---------------------------------------------------------------------------|


Part 2
e|---------------------------------------------------------------------------|
B|---------------------------------------------------------------------------|
G|5-5---------3-3------------------------------------------------------------|
D|5-5-5-5--5--3-3-3-3--3-----------------------------------------------------|
A|3-3-5-5--5--1-1-3-3--3-----------------------------------------------------|
E|----3-3--3------1-1--1-----------------------------------------------------|


[Verse]

Play the chords below then palm mute the numbers
e|---------------------------------------------------------------------------|
B|---------------------------------------------------------------------------|
G|5---------------3----------------------------------------------------------|
D|5-x7---5-5------3-x7---3-3-------------------------------------------------| x2
A|3------5-5-x6---1------3-3-x6----------------------------------------------|
E|-------3-3-------------1-1-------------------------------------------------|

Play these Normally


[Interlude]

e|---------------------------------------------------------------------------|
B|---------------------------------------------------------------------------|
G|5-5---------3-3------------------------------------------------------------|
D|5-5-5-5--5--3-3-3-3--3-----------------------------------------------------|
A|3-3-5-5--5--1-1-3-3--3-----------------------------------------------------|
E|----3-3--3------1-1--1-----------------------------------------------------|


[Pre-Chorus]

e|---------------------------------------------------------------------------|
B|---------------------------------------------------------------------------|
G|---------------------------------------------------------------------------|
D|2----7----2----7----5------------------------------------------------------|
A|2-x8-7-x8-2-x8-7-x4-5-x4---------------------------------------------------|
E|0----5----0----5----3------------------------------------------------------|


[Chorus]

Part 1
e|---------------------------------------------------------------------------|
B|---------------------------------------------------------------------------|
G|5-5---------3-3------------------------------------------------------------| x2
D|5-5-5-5--5--3-3-3-3--3--7-7-5-5--5-----------------------------------------|
A|3-3-5-5--5--1-1-3-3--3--7-7-5-5--5-----------------------------------------|
E|----3-3--3------1-1--1--5-5-3-3--3-----------------------------------------|


Part 2
e|---------------------------------------------------------------------------|
B|---------------------------------------------------------------------------|
G|---------------------------------------------------------------------------|
D|6--------------------------------------------------------------------------| 
A|6-x16----------------------------------------------------------------------|
E|4--------------------------------------------------------------------------|


[Interlude]

PM  - - - - - - - - - - - - - - -
e|---------------------------------------------------------------------------|
B|---------------------------------------------------------------------------|
G|5-5-5-5-5-5-5-5-5-5-5-5-5-5-5-5--------------------------------------------|
D|5-5-5-5-5-5-5-5-5-5-5-5-5-5-5-5--------------------------------------------|
A|3-3-3-3-3-3-3-3-3-3-3-3-3-3-3-3--------------------------------------------|
E|---------------------------------------------------------------------------|


[Verse]

Play the chords below then palm mute the numbers
e|---------------------------------------------------------------------------|
B|---------------------------------------------------------------------------|
G|5---------------3----------------------------------------------------------|
D|5-x7---5-5------3-x7---3-3-------------------------------------------------| x2
A|3------5-5-x6---1------3-3-x6----------------------------------------------|
E|-------3-3-------------1-1-------------------------------------------------|


[Interlude]

e|---------------------------------------------------------------------------|
B|---------------------------------------------------------------------------|
G|5-5---------3-3------------------------------------------------------------|
D|5-5-5-5--5--3-3-3-3--3-----------------------------------------------------|
A|3-3-5-5--5--1-1-3-3--3-----------------------------------------------------|
E|----3-3--3------1-1--1-----------------------------------------------------|


[Pre-Chorus]

e|---------------------------------------------------------------------------|
B|---------------------------------------------------------------------------|
G|---------------------------------------------------------------------------|
D|2----7----2----7----5------------------------------------------------------|
A|2-x8-7-x8-2-x8-7-x4-5-x4---------------------------------------------------|
E|0----5----0----5----3------------------------------------------------------|


[Chorus]

Part 1
e|---------------------------------------------------------------------------|
B|---------------------------------------------------------------------------|
G|5-5---------3-3------------------------------------------------------------| x3
D|5-5-5-5--5--3-3-3-3--3--7-7-5-5--5-----------------------------------------|
A|3-3-5-5--5--1-1-3-3--3--7-7-5-5--5-----------------------------------------|
E|----3-3--3------1-1--1--5-5-3-3--3-----------------------------------------|


Part 2
e|---------------------------------------------------------------------------|
B|---------------------------------------------------------------------------|
G|---------------------------------------------------------------------------|
D|6--------------------------------------------------------------------------| 
A|6-x16----------------------------------------------------------------------|
E|4--------------------------------------------------------------------------|


[Interlude]

e|---------------------------------------------------------------------------|
B|---------------------------------------------------------------------------|
G|8-----7-----5--------------------------------------------------------------| x2
D|8-x16-7-x16-5-x8-5---------------------------------------------------------|
A|6-----5-----3----5-x8------------------------------------------------------|
E|-----------------3---------------------------------------------------------|


[Chorus]

Part 1
e|---------------------------------------------------------------------------|
B|---------------------------------------------------------------------------|
G|5-5---------3-3------------------------------------------------------------| x1
D|5-5-5-5--5--3-3-3-3--3--7-7-5-5--5-----------------------------------------|
A|3-3-5-5--5--1-1-3-3--3--7-7-5-5--5-----------------------------------------|
E|----3-3--3------1-1--1--5-5-3-3--3-----------------------------------------|


[Verse]

Play the chords below then palm mute the numbers
e|---------------------------------------------------------------------------|
B|---------------------------------------------------------------------------|
G|5---------------3----------------------------------------------------------|
D|5-x7---5-5------3-x7---3-3-------------------------------------------------| x2
A|3------5-5-x6---1------3-3-x6----------------------------------------------|
E|-------3-3-------------1-1-------------------------------------------------|


[Chorus]

Part 1
e|---------------------------------------------------------------------------|
B|---------------------------------------------------------------------------|
G|5-5---------3-3------------------------------------------------------------| x8
D|5-5-5-5--5--3-3-3-3--3--7-7-5-5--5-----------------------------------------|
A|3-3-5-5--5--1-1-3-3--3--7-7-5-5--5-----------------------------------------|
E|----3-3--3------1-1--1--5-5-3-3--3-----------------------------------------|


Part 2
e|---------------------------------------------------------------------------|
B|---------------------------------------------------------------------------|
G|---------------------------------------------------------------------------|
D|6--------------------------------------------------------------------------| 
A|6-x16----------------------------------------------------------------------|
E|4--------------------------------------------------------------------------|


[Interlude]

e|---------------------------------------------------------------------------|
B|---------------------------------------------------------------------------|
G|8-----7-----5--------------------------------------------------------------|
D|8-x16-7-x16-5-x8-5---------------------------------------------------------|
A|6-----5-----3----5-x8------------------------------------------------------|
E|-----------------3---------------------------------------------------------|

 (end of first chord)

            
            
Suggest correction
Creating personal tab
Creating personal tab
You can edit any tab online and save it as your Personal.

You can edit, replace or remove any tab part or add personal notes – all changes will be seen only by you.

Personal tabs can be accessed anytime from any device, even offline.
Learn more »
comments
print report bad tab
20 comments total. Showing first comments.
+2 reply
jrt5024 198 Dec 04, 2006 10:39 PM

the interlude is weird. it's definitely not what you have written, but its something like
Interlude
e|--------------------------------------------------------|
B|8-----6-----8----3--------------------------------------|
G|8-----7-----8-x8-4--------------------------------------|
D|8-----8-x2--10---5--------------------------------------|
A|6-----5----------5-x8-----------------------------------|
E|-----------------3--------------------------------------|

or

e|------------|
B|8-----6-----|
G|8-----7-----|
D|8-----8-x2--| (and the rest i have above)
A|6-----8-----|
E|------6-----|

the guitar doesn't follow the bass completely, you can hear that 88 on the G and B almost the whole time. I think the bass is doing the roots but the guitar is doing its own thing. Also, the part after the Cminor is weird, I can't figure out what he plays but it doesn't sound like a Gm, the bass plays that but I'm pretty sure the guitar doesn't. Plus the rhythm isn't straight 8th notes or w/e, he has a definite rhythm he's playing.

+2 reply
Blackshadow442 82 Dec 06, 2006 05:40 PM

there's a delay effect near the end, you can hear it in the outro, so iunno if that might change any theories ppl have

0 reply
ProfNutbutter 10 Dec 27, 2006 11:35 AM

I taught myself how to play the intro/pre-chorus from memory and thought I did a pretty damn good job... everyone recognized it... Little did I realize my memory shifts the key up a step (to D) and makes up chords.

Intro
e|--------------|
B|--------------|
G|-77------7----|x2
D|-77x77-7-7----|
A|-55x77-7-5----|
E|---x55-5------|

Pre-Chorus
e|-----------------------------|
B|-----------------------------|
G|--77------55------44------7--|
D|--77x77-7-55x55-5-44x77-7-7--|
A|--55x77-7-33x55-5-22x77-7-5--|
E|----x55-5---x33-3---x55-5----|

I was so proud of myself until I listened to the song while playing it and realized my mistake.

guest
You may want to rate the tab now too:
select rating
Wanna post a correction for this tab? Suggest correction