Oops, an error
Loading. Please wait.

Needing Getting tab

version 3
version 3

Whole song

by OK Go
4,328 views 18 this week
no commentswrite comment
1 2 3 4 5
x 12
add to favorites
×
Save as Personal and add changes to this tab that will be seen only by you. Learn more ›
×
You can save this tab as Personal to edit and correct it or add notes. All changes will be seen only by you. Learn more »
launch autoscroll
font size
0
reset
how to read this tab
guitar tuner
edit
Autoscroll
slow
fast
+/-
esc
set tempo
stop
Author
Difficulty
-------------------------------------------------------------------------------
                        Needing/Getting - OK Go
-------------------------------------------------------------------------------
Tabbed by: muchamancool

Tuning: Standard

I noticed this song didn't have a correct tab anywhere. Thanks to Tombek for the correct chords.

INTRO:
Clean, with echo or reverb effect. Whatever floats your boat.
Strum fast.
e|-/10-------10--12-----------10-------10-12-10--------------------------|
B|-/12---10--12--14--8--10----12---10--12-14-12--8--10-------------------|
G|-------11----------9--11---------11------------9--11-------------------|
D|-----------------------------------------------------------------------|
A|-----------------------------------------------------------------------|
E|-----------------------------------------------------------------------|

VERSE:
            D                    A                 Bm                     G
I've been waiting for months, waiting for years, waiting for you to change.
               D                               A
Aw, but there ain't much that's dumber, there ain't much that's dumber
      D                       G
than pinning your hopes on a change in another.
    D               A#       Bm                             G
And I, yeah I still need you, but what goods that gonna do?
D           A              G                  D
Needing is one thing, and getting- getting's another.

e|-/10-------10--12-----------14-------10-12-14--------------------------|
B|-/12---10--12--14--8--10----15---10--12-14-15--8--10-------------------|
G|-------11----------9--11---------11------------9--11-------------------|
D|-----------------------------------------------------------------------|
A|-----------------------------------------------------------------------|
E|-----------------------------------------------------------------------|

VERSE 2:
           D                A
So I been sitting around, wasting my time,
  Bm                       G
wondering what you been doing.
            D                        A
Aw, and it ain't real forgiving, it ain't real forgiving
D                           G
sitting here picturing someone else living.
D                    A#       Bm                              G
And I , yeah I still need you, but what goods that gonna do?
D          A               G                    D
Needing is one thing, and getting- getting's another.

SOLO:
e|-/10-------10--12-----------14-------10-12-14--------------------------|
B|-/12---10--12--14--8--10----15---10--12-14-15--8--10-------------------|
G|-------11----------9--11---------11------------9--11-------------------|
D|-----------------------------------------------------------------------|
A|-----------------------------------------------------------------------|
E|-----------------------------------------------------------------------|

e|-11--7-5-----------10--7-5--3-3----------------------------------------|
B|-12--8-8--7--------12--8-8--5-3--3---3------5--------------------------|
G|----------7---3------------------2---3------6--------------------------|
D|--------------4--------------------------------------------------------|
A|-----------------------------------------------------------------------|
E|-----------------------------------------------------------------------|

VERSE:
I've been hoping for months, hoping for years, hoping I might forget.
Aw, but it don't get much dumber, it don't get much dumber
then trying to forget a girl when you love her.
     D               A#           Bm                      G
And I, yeah I still need you, but what goods that gonna do?
D          A              G                        D
Needing is one thing, and getting- getting's another

e|-/10-------10--12-----------14-------10-12-14------------------------|
B|-/12---10--12--14--8--10----15---10--12-14-15--8--10-----------------|
G|-------11----------9--11---------11------------9--11-----------------|
D|---------------------------------------------------------------------| x2
A|---------------------------------------------------------------------|
E|---------------------------------------------------------------------|

e|--2-------|
B|--2-------|
G|--2-------|
D|--2-------| I doubt this is the exact chord, but it sounds alright.
A|--2-------| Mess with the chord if you want.
E|--2-------|

CODA:
Finger pick these chords however you wish, using hammer-ons and pull-offs to give 
the chords more depth.

D A D A G Em(Em7)D 

Repeat this until the end.

            
            
Suggest correction
Creating personal tab
Creating personal tab
You can edit any tab online and save it as your Personal.

You can edit, replace or remove any tab part or add personal notes – all changes will be seen only by you.

Personal tabs can be accessed anytime from any device, even offline.
Learn more »
comments
print report bad tab
guest
You may want to rate the tab now too:
select rating
Wanna post a correction for this tab? Suggest correction