Oops, an error
Loading. Please wait.

Needing Getting tab

version 1
version 1

Whole song

by OK Go
13,391 views 39 this week
3 commentsread comments
1 2 3 4 5
x 8
add to favorites
×
Save as Personal and add changes to this tab that will be seen only by you. Learn more ›
×
You can save this tab as Personal to edit and correct it or add notes. All changes will be seen only by you. Learn more »
launch autoscroll
font size
0
reset
how to read this tab
guitar tuner
edit
Autoscroll
slow
fast
+/-
esc
set tempo
stop
Difficulty
Ok Go Needing/Getting:

Intro:I worked hard on that intro then I deserve 5 stars:
First part        Very Fast.
e|--/10--9--10-13-5-7-----------------------------------------|
B|--/12--10-12-14-7-9-----------------------------------------|2x
G|------------------------------------------------------------|
D|------------------------------------------------------------|
A|------------------------------------------------------------|
E|------------------------------------------------------------|


Verse:
     C        G       Am     F
e|--------------------------------------------|
B|--------------------------------------------|
G|-5-5-5-5------------------------------------|3x
D|-5-5-5-5-5-5-5-5-7-7-7-7-3-3-3-3------------| 
A|-3-3-3-3-5-5-5-5-7-7-7-7-3-3-3-3------------|
E|---------3-3-3-3-5-5-5-5-1-1-1-3------------|

[intro]
This second part of the intro is played only the second time in the second intro:

[First part]1x 
e|-14--9---9---13--5--7---------------------------------------|
B|-15--10--11--14--7--9---------------------------------------|
G|------------------------------------------------------------|1x
D|------------------------------------------------------------|
A|------------------------------------------------------------|
E|------------------------------------------------------------|

Verse 2: The second verse is played as the first

[intro]First part 1x second part 1x

Final:
e|--/10--9--10-13-5-7-----------------------------------------|
B|--/12--10-12-14-7-9-----------------------------------------|1x
G|------------------------------------------------------------|
D|------------------------------------------------------------|
A|------------------------------------------------------------|
E|------------------------------------------------------------|

e|-14--9---9---13--5--7---------------------------------------|
B|-15--10--11--14--7--9---------------------------------------|
G|------------------------------------------------------------|1x
D|------------------------------------------------------------|
A|------------------------------------------------------------|
E|------------------------------------------------------------|

e|--/10--9--10-13-5-7-----------------------------------------|
B|--/12--10-12-14-7-9-----------------------------------------|1x
G|------------------------------------------------------------|
D|------------------------------------------------------------|
A|------------------------------------------------------------|
E|------------------------------------------------------------|


e|-14--9---9---13--5--7--11b-11b-10b-10-10-10-10-10-10--------|
B|-15--10--11--14--7--9---------------------------------------|
G|------------------------------------------------------------|1x
D|------------------------------------------------------------|
A|------------------------------------------------------------|
E|------------------------------------------------------------|

The final solo I improvise like this:

e|-----------------------------------------|
B|-----------------------------------------|
G|-------------7b--------------------------|
D|---7-4---7-4-----------------------------|
A|-5-----5---------------------------------|
E|-----------------------------------------|

I assume you have never heard this song until the end but until I heard it is that soil.

Thanks for read this tab.
Msn/E-mail: alvinhorafael@hotmail.com

            
            
Suggest correction
Creating personal tab
Creating personal tab
You can edit any tab online and save it as your Personal.

You can edit, replace or remove any tab part or add personal notes – all changes will be seen only by you.

Personal tabs can be accessed anytime from any device, even offline.
Learn more »
comments
print report bad tab
3 comments total.
+1 reply
Guntstable 10 Sep 15, 2011 03:53 PM

Intro.
e|--/10--5--10-12-3-5--------------------------------------|
B|--/12--7--12-14-5-7--------------------------------------| 2x
G|---------------------------------------------------------|
D|---------------------------------------------------------|
A|---------------------------------------------------------|
E|---------------------------------------------------------|

0 reply
The_awesome_dud 148 Nov 06, 2011 05:10 AM

The chords in the verse are nowhere close. They're D, B, and a few others...can't remember...and the intro and interludes are wrong, too.

0 reply
SG400master 10 Apr 24, 2014 07:25 AM

didn't like this contribution

guest
Wanna post a correction for this tab? Suggest correction