Oops, an error
Loading. Please wait.

Flower Faces chords

458 views 1 this week
2 commentsread comments
1 2 3 4 5
3 more votes to show rating
add to favorites
×
Save as Personal and add changes to this tab that will be seen only by you. Learn more ›
×
You can save this tab as Personal to edit and correct it or add notes. All changes will be seen only by you. Learn more »
launch autoscroll
font size
0
reset
transpose
0
reset
display chords
guitar tuner
edit
Autoscroll
slow
fast
+/-
esc
set tempo
stop
Strumming
There is no strumming pattern for this song yet. and get +5 IQ
Flower Faces - Old Canes

Capo on 4th fret to play along with the album.  All chords relative to the capo.

Intro/Verse (0:00 - 0:43)

"This is for the times we had, you were dancing and I was sad."

    Em  G  C
e----0--0--0-|
b----0--3--1-|
g----0--0--0-|
d----2--0--2-|
a----2--0--3-|
e----0--2--x-|

Chorus (0:43 - 0:56)

"Turn your flower faces up, the light is shining down on you."
    Am  G
e----0--3-|
b----1--0-|
g----2--0-|
d----2--0-|
a----0--2-|
e----0--3-|

Verse 2 (0:57 - 1:27)

    Em  G  C
e----0--0--0-|
b----0--3--1-|
g----0--0--0-|
d----2--0--2-|
a----2--0--3-|
e----0--2--x-|

Chorus 2 (1:28 - 1:33)

"Turn your flower faces up, the light is shining down on you."

*You do not play the G chord here, it goes right back to the verse

    Am
e----0--|
b----1--|
g----2--|
d----2--|
a----0--|
e----0--|

Verse x2 (1:34 - 1:40)

    Em  G  C
e----0--0--0-|
b----0--3--1-|
g----0--0--0-|
d----2--0--2-|
a----2--0--3-|
e----0--2--x-|

Chorus (1:41 - 1:53)

    Am  G
e----0--3--3/8-8-8-8-8-8-|
b----1--0----------------|
g----2--0----------------|
d----2--0----------------|
a----0--2----------------|
e----0--3----------------|

Repeat Verse a bunch of times then this outro:  (2:30 - 3:40)

"You know that I love you and would do anything."
    Am  Em C  G
e----0--0--0--3-|
b----1--0--1--0-|
g----2--0--0--0-|
d----2--2--2--0-|
a----0--2--3--2-|
e----0--0--x--3-|


A good song off the Old Canes album Feral Harmonic.  Easy song.  I put the times you're 
to be playing the progressions next to each one.  Any suggestions/lyrics, message me.  
and good luck.

            
            
Suggest correction
Creating personal tab
Creating personal tab
You can edit any tab online and save it as your Personal.

You can edit, replace or remove any tab part or add personal notes – all changes will be seen only by you.

Personal tabs can be accessed anytime from any device, even offline.
Learn more »
Give kudos to tab author, rate the tab!
1 2 3 4 5
comments
print report bad tab
2 comments total.
0 reply
holyroller12 40 Oct 27, 2010 10:26 PM

In the 3rd chorus it should NOT be

Am G
e----0--3--3/8-8-8-8-8-8-|
b----1--0----------------|
g----2--0----------------|
d----2--0----------------|
a----0--2----------------|
e----0--3----------------|

Chorus (1:41 - 1:53)

Am G
e----0--3----------------|
b----1--0----------------|
g----2--0----------------|
d----2--0----------------|
a----0--2----------------|
e----0--3-3/8-8-8-8-8-8-8|

0 reply
holyroller12 40 Dec 15, 2010 01:25 AM

Also, the G you have in the verse should be a D with the low E fretted at 2:

Em D C
e----0--2--0-|
b----0--3--1-|
g----0--2--0-|
d----2--0--2-|
a----2--0--3-|
e----0--2--x-|

guest
Wanna post a correction for this tab? Suggest correction