Oops, an error
Loading. Please wait.

If You Love Me Let Me Know bass

164 views 3 this week
no commentswrite comment
1 2 3 4 5
3 more votes to show rating
add to favorites
×
Save as Personal and add changes to this tab that will be seen only by you. Learn more ›
×
You can save this tab as Personal to edit and correct it or add notes. All changes will be seen only by you. Learn more »
launch autoscroll
font size
0
reset
guitar tuner
edit
Autoscroll
slow
fast
+/-
esc
set tempo
stop
Author
Difficulty
-------------------------------------------------------------------------------------------------
                         If You Love Me (Let Me Know) - Olivia Newton-John                       
-------------------------------------------------------------------------------------------------
Written by: John Rostill
Sung by: Olivia Newton-John (1974)

Tabbed by: BKingi
Tuning: Standard
Tempo: 128 bpm


LEAD-IN:
 +  3  +  4  +
G|--x-----x--|
D|--x-----x--|
A|--x-----x--|
E|--x-----x--|


INTRO:
 +  1  +  2  +  3  +  4  +  1  +  2  +  3  +  4  +  1  +  2  +  3  +  4  +  1  +  2  +  3  +  4  +
G|-----------------------|-----------------------|-----------------------|-----------------------|
D|-----------------------|-----------------------|-----------------------|--------------------3--|
A|--1--------------------|--1--------------------|--------------3--------|--------------3--5-----|
E|--------------1--------|--------------1--------|--1--------------------|--1--------1-----------|
  (00:02)

 +  1  +  2  +  3  +  4  +  1  +  2  +  3  +  4  +  1  +  2  +  3  +  4  +  1  +  2  +  3  +  4  +
G|-----------------------|-----------------------|-----------------------|----------------------||
D|-----------------------|-----------------------|-----------------------|----------------------||
A|--3--------------------|--3--------------------|--1--------1-----------|----------------------||
E|--------------3--------|--------------3--------|--------------5-----3--|--1-------------------||


VERSE 1:
 +  1  +  2  +  3  +  4  +  1  +  2  +  3  +  4  +  1  +  2  +  3  +  4  +  1  +  2  +  3  +  4  +
G|-----------------------|-----------------------|-----------------------|-----------------------|
D|-----------------------|--3--------3--------3--|-----------------------|--3--------3--------3--|
A|--------------3--------|--------------3--5-----|--------------3--------|--------------3--5-----|
E|--1--------------------|-----------------------|--1--------------------|-----------------------|
  (00:16)

 +  1  +  2  +  3  +  4  +  1  +  2  +  3  +  4  +  1  +  2  +  3  +  4  +  1  +  2  +  3  +  4  +
G|-----------------------|-----------------------|-----------------------|-----------------------|
D|-----------------------|--3--------3--------3--|-----------------------|--------------------3--|
A|--------------3--------|--------------3--5-----|--1--------------------|--1--------1--3--5-----|
E|--1--------------------|-----------------------|--------------1--------|-----------------------|


 +  1  +  2  +  3  +  4  +  1  +  2  +  3  +  4  +  1  +  2  +  3  +  4  +  1  +  2  +  3  +  4  +
G|-----------------------|-----------------------|-----------------------|-----------------------|
D|-----------------------|-----------------------|-----------------------|--------------------3--|
A|--1--------------------|--1-----------1--------|--------------3--------|--------------3--5-----|
E|--------------1--------|-----------1-----------|--1--------------------|--1--------1-----------|


 +  1  +  2  +  3  +  4  +  1  +  2  +  3  +  4  +  1  +  2  +  3  +  4  +  1  +  2  +  3  +  4  +
G|-----------------------|-----------------------|-----------------------|----------------------||
D|--5--------------------|-----------------------|-----------------------|----------------------||
A|--------------5--------|--3-----------3--------|--------------3--------|----------------------||
E|-----------------------|-----------------5--3--|--1--------------------|--1-------------------||


CHORUS 1:
 +  1  +  2  +  3  +  4  +  1  +  2  +  3  +  4  +  1  +  2  +  3  +  4  +  1  +  2  +  3  +  4  +
G|-----------------------|-----------------------|-----------------------|-----------------------|
D|-----------------------|-----------------------|-----------------------|--------------------3--|
A|--1--------------------|--1--------------------|--------------3--------|--------------3--5-----|
E|--------------1--------|--------------1--------|--1--------------------|--1--------------------|
  (00:46)

 +  1  +  2  +  3  +  4  +  1  +  2  +  3  +  4  +  1  +  2  +  3  +  4  +  1  +  2  +  3  +  4  +
G|-----------------------|-----------------------|-----------------------|-----------------------|
D|-----------------------|-----------------------|-----------------------|--3--------3--3--------|
A|--3--------------------|--3--------------------|--------------3--------|-----------------3--0--|
E|--------------3--------|--------------3--------|--1--------------------|-----------------------|

 +  1  +  2  +  3  +  4  +  1  +  2  +  3  +  4  +  1  +  2  +  3  +  4  +  1  +  2  +  3  +  4  +
G|-----------------------|-----------------------|-----------------------|-----------------------|
D|-----------------------|-----------------------|-----------------------|--3-----------------3--|
A|--1--------------------|--1-----------------1--|--------------3--------|--------------3--5-----|
E|--------------1--------|--------------1--3-----|--1--------------------|-----------------------|

                                                                                    CHORUS 1 END
 +  1  +  2  +  3  +  4  +  1  +  2  +  3  +  4  +  1  +  2  +  3  +  4  +  1  +  2  +  3  +  4  +
G|-----------------------|-----------------------|-----------------------|----------------------||
D|-----------------------|-----------------------|-----------------------|----------------------||
A|--3--------------------|--3--------------------|--1--------------------|----------------------||
E|--------------3--------|--------------3--------|--------------5-----3--|--1-------------------||


 +  1  +  2  +  3  +  4  +  1  +  2  +  3  +  4  +  1  +  2  +  3  +  4  +  1  +  2  +  3  +  4  +
G|-----------------------|-----------------------|-----------------------|----------------------||
D|-----------------------|-----------------------|-----------------------|----------------------||
A|--3--------------------|--3--------------------|--1--------------------|----------------------||
E|--------------3--------|--------------3--------|--------------5-----3--|--1-------------------||


VERSE 2:
 +  1  +  2  +  3  +  4  +
G|----------------------||
D|----------REST--------||
A|------x16 MEASURES----||
E|----------------------||
  (01:23)

VERSE 3:
 +  1  +  2  +  3  +  4  +  1  +  2  +  3  +  4  +  1  +  2  +  3  +  4  +  1  +  2  +  3  +  4  +
G|-----------------------|-----------------------|-----------------------|-----------------------|
D|-----------------------|--------------------3--|-----------------------|--------------------3--|
A|--------------3--------|--------------3--5-----|--------------3--------|--------------3--5-----|
E|--1--------------------|--1--------------------|--1--------------------|--1--------------------|
  (01:54)

 +  1  +  2  +  3  +  4  +  1  +  2  +  3  +  4  +  1  +  2  +  3  +  4  +  1  +  2  +  3  +  4  +
G|-----------------------|-----------------------|-----------------------|-----------------------|
D|-----------------------|--------------------3--|-----------------------|--------------------3--|
A|--------------3--------|--------------3--5-----|--1--------------------|--1-----------3--5-----|
E|--1--------------------|--1--------------------|--------------1--------|-----------------------|


 +  1  +  2  +  3  +  4  +  1  +  2  +  3  +  4  +  1  +  2  +  3  +  4  +  1  +  2  +  3  +  4  +
G|-----------------------|-----------------------|-----------------------|-----------------------|
D|-----------------------|--------------------3--|-----------------------|-----------------------|
A|--1--------------------|--1-----------3--5-----|--------------3--------|--------------3--5--3--|
E|--------------1--------|-----------------------|--1--------------------|--1--------------------|


 +  1  +  2  +  3  +  4  +  1  +  2  +  3  +  4  +  1  +  2  +  3  +  4  +  1  +  2  +  3  +  4  +
G|-----------------------|-----------------------|-----------------------|----------------------||
D|--5--------------------|-----------------------|-----------------------|----------------------||
A|--------------5--------|--3--------------------|--------------3--------|----------------------||
E|-----------------------|--------------3--------|--1--------------------|--1-------------------||


CHORUS 2:
 +  1  +  2  +  3  +  4  +  1  +  2  +  3  +  4  +  1  +  2  +  3  +  4  +  1  +  2  +  3  +  4  +
G|-----------------------|-----------------------|-----------------------|-----------------------|
D|-----------------------|-----------------------|-----------------------|--3--------------------|
A|--1--------------------|--1-----------------1--|--------------3--------|--------------3--------|
E|--------------1--------|--------------1--3-----|--1--------------------|-----------------------|
  (02:24)

 +  1  +  2  +  3  +  4  +  1  +  2  +  3  +  4  +  1  +  2  +  3  +  4  +  1  +  2  +  3  +  4  +
G|-----------------------|-----------------------|-----------------------|-----------------------|
D|-----------------------|-----------------------|-----------------------|--3--------3--3--------|
A|--3--------------------|--3--------------------|--------------3--------|-----------------3--0--|
E|--------------3--------|--------------3--------|--1--------------------|-----------------------|

 +  1  +  2  +  3  +  4  +  1  +  2  +  3  +  4  +  1  +  2  +  3  +  4  +  1  +  2  +  3  +  4  +
G|-----------------------|-----------------------|-----------------------|-----------------------|
D|-----------------------|-----------------------|-----------------------|--------------------3--|
A|--1--------------------|--1-----------------1--|--------------3--------|--------------3--5-----|
E|--------------1--------|--------------1--3-----|--1--------------------|--1--------------------|

                                                                                    CHORUS 2 END
 +  1  +  2  +  3  +  4  +  1  +  2  +  3  +  4  +  1  +  2  +  3  +  4  +  1  +  2  +  3  +  4  +
G|-----------------------|-----------------------|-----------------------|----------------------||
D|-----------------------|-----------------------|-----------------------|----------------------||
A|--3--------------------|--3-----------------3--|--1--------------------|----------------------||
E|--------------3--------|--------------3--5-----|--------------5-----3--|--1-------------------||


OUTRO:
 +  1  +  2  +  3  +  4  +  1  +  2  +  3  +  4  +  1  +  2  +  3  +  4  +  1  +  2  +  3  +  4  +
G|-----------------------|-----------------------|-----------------------|-----------------------|
D|-----------------------|-----------------------|-----------------------|--------------------3--|
A|--1--------------------|--1--------------------|--------------3--------|--------------3--5-----|
E|--------------1--------|--------------1--------|--1--------------------|--1--------------------|
  (02:54)

 +  1  +  2  +  3  +  4  +  1  +  2  +  3  +  4  +  1  +  2  +  3  +  4  +  1  +  2  +  3  +  4  +
G|-----------------------|-----------------------|-----------------------|----------------------||
D|-----------------------|-----------------------|-----------------------|----------------------||
A|--3--------------------|--3-----------------3--|--1--------------------|----------------------||
E|--------------3--------|--------------3--5-----|-----------------------|--1-------------------||

            
            
Suggest correction
Creating personal tab
Creating personal tab
You can edit any tab online and save it as your Personal.

You can edit, replace or remove any tab part or add personal notes – all changes will be seen only by you.

Personal tabs can be accessed anytime from any device, even offline.
Learn more »
Give kudos to tab author, rate the tab!
1 2 3 4 5
comments
print report bad tab
guest
You may want to rate the tab now too:
select rating
Wanna post a correction for this tab? Suggest correction