Oops, an error
Loading. Please wait.

Cheerleader Felix Jaehn Remix bass

version 1
version 1

Whole song

Interactive

by Omi
3,300 views 6 this week
no commentswrite comment
1 2 3 4 5
2 more votes to show rating
add to favorites
×
Save as Personal and add changes to this tab that will be seen only by you. Learn more ›
×
You can save this tab as Personal to edit and correct it or add notes. All changes will be seen only by you. Learn more »
launch autoscroll
font size
0
reset
guitar tuner
edit
Autoscroll
slow
fast
+/-
esc
set tempo
stop
-------------------------------------------------------------------------------
                     CHEERLEADER (Felix Jaehn Remix) - OMI
-------------------------------------------------------------------------------
Tabbed by: Guidedwhispers
E-mail: guidedwhispers.my@gmail.com


Fairly easy song to play on the bass. All you need is the feel for the groove and the syncopation. 
Some parts of the song does not have bass, but just in case you wanna play it, I've tabbed it under "EXTRAS". 
The notes basically follow the root note of the piano chords. 
One word of caution, the form of the bass parts may seem identical and repetitive. 
However, there slight variations usually found in the 2nd and 4th bars of most bass phrases.
The time markers were referenced from the official video from "Ultra Music".


Tuning: Standard (EADG)

EXTRAS
G|---------------------------------------------------------------------------|
D|---------------------------------------------------------------------------|
A|---------------------------------------------------------------------------|
E|-0-----7--5--0-----7--5--0-----7--5--0-----7--5--(continued to other parts)|

PRE-CHORUS 1 (0:41)
G|---------------------------------------------------------------------------|
D|---------------------------------------------------------------------------|
A|---------------------------------------------------------------------------|
E|-0--5--7--5--0--5--7--5----------------------------------------------------|

CHORUS 1 (0:49)
G|---------------------------------------------------------------------------|
D|---------------------------------------------------------------------------|
A|-7-7--------------7-7-----------------7-7--------------7-7-----------------|
E|-----5--5-7-7-0-------5--5-7-7-0-0--7-----5--5-7-7-0-------5--5-7-7-0---7--|

VERSE 2 (1:06)
G|---------------------------------------------------------------------------|
D|---------------------------------------------------------------------------|
A|-7-7--------------7-7-----------------7-7--------------7-7-----------------|
E|-----5--5-7-7-0-------5--5-7-7-0-0--7-----5--5-7-7-0-------5--5-7-7-0------|

PRE-CHORUS 2 (1:22)
G|---------------------------------------------------------------------------|
D|---------------------------------------------------------------------------|
A|---------------------------------------------------------------------------|
E|-0--5--7--5--0--5--7--5----------------------------------------------------|

CHORUS 2 (1:30)
G|---------------------------------------------------------------------------|
D|---------------------------------------------------------------------------|
A|-7-7--------------7-7-----------------7-7--------------7-7-----------------|
E|-----5--5-7-7-0-------5--5-7-7-0----7-----5--5-7-7-0-------5--5-7-7-0-0--7-|

INTERLUDE (1:46)
G|---------------------------------------------------------------------------|
D|---------------------------------------------------------------------------|
A|-7-7--------------7-7-----------------7-7--------------7-7-----------------|
E|-----5--5-7-7-0-------5--5-7-7-0-0--7-----5--5-7-7-0-------5--5-7-7-0------|

PRE-CHORUS 3 (2:19)
G|---------------------------------------------------------------------------|
D|---------------------------------------------------------------------------|
A|---------------------------------------------------------------------------|
E|-0--5--7--5--0--5--7--5--0--5--7--5--0--5--7--5----------------------------|

CHORUS 3 (2:35)
G|---------------------------------------------------------------------------|
D|---------------------------------------------------------------------------|
A|-7-7--------------7-7-----------------7-7--------------7-7-----------------|
E|-----5--5-7-7-0-------5--5-7-7-0----7-----5--5-7-7-0-------5--5-7-7-0-0--7-|

OUTRO (2:51)
G|---------------------------------------------------------------------------|
D|---------------------------------------------------------------------------|
A|-7-7--------------7-7-----------------7-7----------------------------------|
E|-----5--5-7-7-0-------5--5-7-7-0----7-----5--5-7-7-0-----------------------|


******************************************************************************
Easy right?! :)
******************************************************************************

            
            
Suggest correction
Creating personal tab
Creating personal tab
You can edit any tab online and save it as your Personal.

You can edit, replace or remove any tab part or add personal notes – all changes will be seen only by you.

Personal tabs can be accessed anytime from any device, even offline.
Learn more »
Give kudos to tab author, rate the tab!
1 2 3 4 5
comments
print report bad tab
guest
You may want to rate the tab now too:
select rating
Wanna post a correction for this tab? Suggest correction