Oops, an error
Loading. Please wait.

Drifting tab

4,474 views 51 this week
1 commentread comment
1 2 3 4 5
x 10
add to favorites
×
Save as Personal and add changes to this tab that will be seen only by you. Learn more ›
×
You can save this tab as Personal to edit and correct it or add notes. All changes will be seen only by you. Learn more »
launch autoscroll
font size
0
reset
how to read this tab
guitar tuner
edit
Autoscroll
slow
fast
+/-
esc
set tempo
stop
Author
Difficulty
[Intro]

        Em
e|----------------------------------------------------------------------------------------|     
B|---------8----------8----------8----------8----------8----------8----------8----------8-|
G|------0----------0----------0----------0----------0----------0----------0----------0----|
D|----9----------9----------9----------9----------9----------9----------9----------9------|x2
A|-7----------7----------7----------7----------7----------7----------7----------7---------|
E|----------------------------------------------------------------------------------------|

        G                  C
e|----------------------------------------------------------------------------------------|
B|--------12---------12---------5----------5----------5----------5----------5----------5--|
G|------0----------0---------0----------0----------0----------0----------0----------0-----|
D|---12---------12---------5----------5----------5----------5----------5----------5-------|x2
A|-10---------10---------3----------3----------3----------3----------3----------3---------|
E|----------------------------------------------------------------------------------------|


[Verse]

        Em
e|----------------------------------------------------------------------------------------|             
B|---------8----------8----------8----------8----------8----------8----------8----------8-|             
G|------0----------0----------0----------0----------0----------0----------0----------0----|             
D|----9----------9----------9----------9----------9----------9----------9----------9------|x2             
A|-7----------7----------7----------7----------7----------7----------7----------7---------|
E|----------------------------------------------------------------------------------------|
                                                                                          
         C
e|----------------------------------------------------------------------------------------|
B|--------5----------5----------5----------5----------5----------5----------5----------5--|
G|-----0----------0----------0----------0----------0----------0----------0----------0-----|
D|---5----------5----------5----------5----------5----------5----------5----------5-------|x2
A|-3----------3----------3----------3----------3----------3----------3----------3---------|
E|----------------------------------------------------------------------------------------|
                                                                                                              
        D                                                                                                     
e|----------------------------------------------------------------------------------------|
B|--------7----------7----------7----------7----------7----------7----------7----------7--|
G|-----0----------0----------0----------0----------0----------0----------0----------0-----|
D|---7----------7----------7----------7----------7----------7----------7----------7-------|
A|-5----------5----------5----------5----------5----------5----------5----------5---------|
E|----------------------------------------------------------------------------------------|

        C                                                                                                     
e|----------------------------------------------------------------------------------------|
B|--------5----------5----------5----------5----------5----------5----------5----------5--|
G|-----0----------0----------0----------0----------0----------0----------0----------0-----|
D|---5----------5----------5----------5----------5----------5----------5----------5-------|
A|-3----------3----------3----------3----------3----------3----------3----------3---------|
E|----------------------------------------------------------------------------------------|

        D                                                                                                     
e|----------------------------------------------------------------------------------------|
B|--------7----------7----------7----------7----------7----------7----------7----------7--|
G|-----0----------0----------0----------0----------0----------0----------0----------0-----|
D|---7----------7----------7----------7----------7----------7----------7----------7-------|
A|-5----------5----------5----------5----------5----------5----------5----------5---------|
E|----------------------------------------------------------------------------------------|


[Chorus]

e|---------------------------------------------------------------------------------------------------|
B|----3----5----12---------5--------5--------5--------5--------5--------5--------5--------5--------5-|
G|----0----5----12-------0--------0--------0--------0--------0--------0--------0--------0--------0---|
D|----0----5----12-----5--------5--------5--------5--------5--------5--------5--------5--------5-----|
A|----2----3----10---3--------3--------3--------3--------3--------3--------3--------3--------3-------|
E|---------------------------------------------------------------------------------------------------|

e|-----------------------------------------------------------------------------------------------------------|
B|----3----5----12---------7--------7--------7--------7--------7--------7--------7--------7--------7--------7|
G|----0----5----12-------0--------0--------0--------0--------0--------0--------0--------0--------0--------0--|
D|----0----5----12-----7--------7--------7--------7--------7--------7--------7--------7--------7--------7----|
A|----2----3----10---5--------5--------5--------5--------5--------5--------5--------5--------5--------5------|
E|-----------------------------------------------------------------------------------------------------------|

e|----------------------------------------------------------------------------------------|
B|--------5----------5----------5----------5----------5----------5----------5----------5--|
G|-----0----------0----------0----------0----------0----------0----------0----------0-----|  x2
D|---5----------5----------5----------5----------5----------5----------5----------5-------|
A|-3----------3----------3----------3----------3----------3----------3----------3---------|
E|----------------------------------------------------------------------------------------|

[Verse]

        Em
e|----------------------------------------------------------------------------------------|             
B|---------8----------8----------8----------8----------8----------8----------8----------8-|             
G|------0----------0----------0----------0----------0----------0----------0----------0----|             
D|----9----------9----------9----------9----------9----------9----------9----------9------|x2             
A|-7----------7----------7----------7----------7----------7----------7----------7---------|
E|----------------------------------------------------------------------------------------|
                                                                                          
         C
e|----------------------------------------------------------------------------------------|
B|--------5----------5----------5----------5----------5----------5----------5----------5--|
G|-----0----------0----------0----------0----------0----------0----------0----------0-----|
D|---5----------5----------5----------5----------5----------5----------5----------5-------|x2
A|-3----------3----------3----------3----------3----------3----------3----------3---------|
E|----------------------------------------------------------------------------------------|
                                                                                                              
        D                                                                                                     
e|----------------------------------------------------------------------------------------|
B|--------7----------7----------7----------7----------7----------7----------7----------7--|
G|-----0----------0----------0----------0----------0----------0----------0----------0-----|
D|---7----------7----------7----------7----------7----------7----------7----------7-------|
A|-5----------5----------5----------5----------5----------5----------5----------5---------|
E|----------------------------------------------------------------------------------------|

        C                                                                                                     
e|----------------------------------------------------------------------------------------|
B|--------5----------5----------5----------5----------5----------5----------5----------5--|
G|-----0----------0----------0----------0----------0----------0----------0----------0-----|
D|---5----------5----------5----------5----------5----------5----------5----------5-------|
A|-3----------3----------3----------3----------3----------3----------3----------3---------|
E|----------------------------------------------------------------------------------------|

        D                                                                                                     
e|----------------------------------------------------------------------------------------|
B|--------7----------7----------7----------7----------7----------7----------7----------7--|
G|-----0----------0----------0----------0----------0----------0----------0----------0-----|
D|---7----------7----------7----------7----------7----------7----------7----------7-------|
A|-5----------5----------5----------5----------5----------5----------5----------5---------|
E|----------------------------------------------------------------------------------------|


[Chorus]

e|---------------------------------------------------------------------------------------------------|
B|----3----5----12---------5--------5--------5--------5--------5--------5--------5--------5--------5-|
G|----0----5----12-------0--------0--------0--------0--------0--------0--------0--------0--------0---|
D|----0----5----12-----5--------5--------5--------5--------5--------5--------5--------5--------5-----|
A|----2----3----10---3--------3--------3--------3--------3--------3--------3--------3--------3-------|
E|---------------------------------------------------------------------------------------------------|

e|-----------------------------------------------------------------------------------------------------------|
B|----3----5----12---------7--------7--------7--------7--------7--------7--------7--------7--------7--------7|
G|----0----5----12-------0--------0--------0--------0--------0--------0--------0--------0--------0--------0--|
D|----0----5----12-----7--------7--------7--------7--------7--------7--------7--------7--------7--------7----|
A|----2----3----10---5--------5--------5--------5--------5--------5--------5--------5--------5--------5------|
E|-----------------------------------------------------------------------------------------------------------|

e|----------------------------------------------------------------------------------------|
B|--------5----------5----------5----------5----------5----------5----------5----------5--|
G|-----0----------0----------0----------0----------0----------0----------0----------0-----|  x2
D|---5----------5----------5----------5----------5----------5----------5----------5-------|
A|-3----------3----------3----------3----------3----------3----------3----------3---------|
E|----------------------------------------------------------------------------------------|

            
            
Suggest correction
Creating personal tab
Creating personal tab
You can edit any tab online and save it as your Personal.

You can edit, replace or remove any tab part or add personal notes – all changes will be seen only by you.

Personal tabs can be accessed anytime from any device, even offline.
Learn more »
comments
print report bad tab
1 comment total.
0 reply
Fap4Exp 31 Jun 08, 2016 03:02 PM

Awesome tab! The speed of the song is a little overwhelming but the tab is very clear and sounds accurate. Thanks for taking the time out to publish.

guest
You may want to rate the tab now too:
select rating
Wanna post a correction for this tab? Suggest correction