Oops, an error
Loading. Please wait.

Wild International tab

version 2
version 2

Whole song

Interactive

6,945 views 1 this week
2 commentsread comments
1 2 3 4 5
x 6
add to favorites
×
Save as Personal and add changes to this tab that will be seen only by you. Learn more ›
×
You can save this tab as Personal to edit and correct it or add notes. All changes will be seen only by you. Learn more »
launch autoscroll
font size
0
reset
how to read this tab
guitar tuner
edit
Autoscroll
slow
fast
+/-
esc
set tempo
stop
------------------------------------------------------------------------
                                 Wild International - One Day As A Lion
------------------------------------------------------------------------
Tabbed by: TollBoothWorker

Tuning: Standard

To get a good sound, I would put on a whammy pedal and set it an octave down, and add
distortion. All of these songs can be played with just a bass and distortion too.

Intro/Verse Riff

e|------------------------------||
b|------------------------------||
g|------------------------------||
d|------------------------------||  9x
a|--(3)-3-1-4--3--(3)-3--(3)-3--||
e|------------------------------||

I put ghost notes in because it is not really clear on whether or not it is a slur, but
definitely get the idea.

Chorus 1

e|----------------------|     e|----------------------|
b|----------------------|     b|----------------------|
g|----------------------|     g|----------------------|
d|-----------2h3--------| 3x  d|-----------2h3--------| 1x
a|--3h4-4-4------1-3-3--|     a|--3h4-4-4------3------|
e|----------------------|     E|----------------------|

The reason this is so damn hard to figure out is because the voicing on Zach’s keys has
octaves for each note in the chorus, or he is using octaves.


Change Up on second Verse riff

e|----------------------------------------------------------|
b|----------------------------------------------------------|
g|----------------------------------------------------------|
d|----------------------------------------------------------| 1x
a|--(3)-3--(3)-3--(3)-3--(3)-3--(3)-3--(3)-3--(3)-3--(3)-3--|
e|----------------------------------------------------------|


Verse riff

e|------------------------------||
b|------------------------------||
g|------------------------------||
d|------------------------------||  6x
a|--(3)-3-1-4--3--(3)-3--(3)-3--||
e|------------------------------||


Chorus 2

e|----------------------|     e|--------------------------|
b|----------------------|     b|--------------------------|
g|----------------------|     g|--------------------------|
d|-----------2h3--------| 5x  d|-----------2h3------------| 1x
a|--3h4-4-4------1-3-3--|     a|--3h4-4-4------3-3-3-3-3--|
e|----------------------|     E|--------------------------|

For the last two times try to let the notes ring a little more. I had an idea for the
one. That last note (c) is held down. Zach’s keys have no decay. So you can find that
on an EQ and jack it up a bit, so you get some feed back on the note for sustain. Reverb 
also do the trick, but it would only have to be that part, and then it would have to
off.

Breakdown

e|------------------------------|     e|--------------------------------|
b|------------------------------|     b|--------------------------------|
g|------------------------------|     g|--------------------------------|
d|------------------------------| 4x  d|--------------------------------|  4x
a|------------------------------|     a|--------------------------------|
e|--6-6-6-6-4h6--4h6-6-7-6-4h6--|     E|--4h6-6-7-6-4h6--4h6-6-7-6-4h6--|

Chorus/Outro

e|----------------------|
b|----------------------|
g|----------------------|
d|-----------2h3--------| 4x
a|--3h4-4-4------1-3-3--|
e|----------------------|

Key 

h - hammer

(x) - ghost note

            
            
Suggest correction
Creating personal tab
Creating personal tab
You can edit any tab online and save it as your Personal.

You can edit, replace or remove any tab part or add personal notes – all changes will be seen only by you.

Personal tabs can be accessed anytime from any device, even offline.
Learn more »
comments
print report bad tab
2 comments total.
0 reply
4ng3l 31 May 12, 2009 07:27 PM

Great tab, I dont have a whammy pedal so I do this:
a|------3-1-4--3---3------3-----||
e|--------------------1------1--||

sounds about the same

0 reply
sixsixone__ 93 Oct 12, 2009 06:00 PM

i found this tab useful for playing this song on my bass. great work!

guest
You may want to rate the tab now too:
select rating
Wanna post a correction for this tab? Suggest correction