Oops, an error
Loading. Please wait.

Drag Me Down bass

version 2
version 2

Whole song

  • Bass in the studio version of Drag Me Down.

Interactive

7,734 views 27 this week
3 commentsread comments
1 2 3 4 5
x 8
add to favorites
×
Save as Personal and add changes to this tab that will be seen only by you. Learn more ›
×
You can save this tab as Personal to edit and correct it or add notes. All changes will be seen only by you. Learn more »
launch autoscroll
font size
0
reset
guitar tuner
edit
Autoscroll
slow
fast
+/-
esc
set tempo
stop
Author
About this tab version
Bass in the studio version of Drag Me Down. Was this info helpful? Yes No
[Verse] 
G|-------------------------------------------------------------------|
D|-------------------------------------------------------------------|
A|-3-3-------------------------------3-3-----------------------------|
E|--------3-4-4----4-6-6----1-1-1---3-------3-4-4----4-6-6----1-1-1--|

[Pre-Chorus]
G|---------------------------------------------------------------------------|
D|---------------------------------------------------------------------------|
A|--3-3-------------------------------3-3------------------------------------|
E|-3-------3-4-4----4-6-6----1-1-1---3-------3-4-4----4-6-6----1-1-1--/7-/7--|

[Chorus]

  (All my life...)
G|-------------------------------------------------------------------|
D|-------------------------------------------------------------------|
A|-3-3-3-3-3-3-3-3---------------------------------------------------|
E|-----------------4-4-4-4-4-4-4-4-4-6-6-6-6-6-6-6-6-1-1-1-1-1-1-1-1-|

  (All these lights...)
G|--------------------------------------------------|
D|--------------------------------------------------|
A|-3-3-3-3-3-3-3-3----------------------------------|
E|-----------------3-3-3-3-3-3-3-3-6-6-6-6-6-6-6-6--|

(Nobody can drag me DOWN)
G|-------------------------------------------------------------------------------------------|
D|-------------------------------------------------------------------------------------------|
A|------------------3-3-------------------------------3-3------------------------------------|
E|-------------------------3-4-4----4-6-6----1-1-1---3-------3-4-4----4-6-6----1-1-1--/7-/7--|

[Verse]
G|--------------------------------------------------------------------------|
D|--------------------------------------------------------------------------|
A|-3-3-------------------------------3-3------------------------------------|
E|--------3-4-4----4-6-6----1-1-1---3-------3-4-4----4-6-6----1-1-1--/7-/7--|

[Pre-Chorus]
G|---------------------------------------------------------------------------|
D|---------------------------------------------------------------------------|
A|--3-3-------------------------------3-3------------------------------------|
E|---------3-4-4----4-6-6----1-1-1---3-------3-4-4----4-6-6----1-1-1--/7-/7--|

[Chorus]

  (All my life...)
G|-------------------------------------------------------------------|
D|-------------------------------------------------------------------|
A|-3-3-3-3-3-3-3-3---------------------------------------------------|
E|-----------------4-4-4-4-4-4-4-4-4-6-6-6-6-6-6-6-6-1-1-1-1-1-1-1-1-|

  (All these lights...)
G|--------------------------------------------------|
D|--------------------------------------------------|
A|-3-3-3-3-3-3-3-3----------------------------------|
E|-----------------3-3-3-3-3-3-3-3-6-6-6-6-6-6-6-6--|

(...DOWN)
G|--------------------------------------------------------------------------|
D|--------------------------------------------------------------------------|
A|-3-3-------------------------------3-3------------------------------------|
E|--------3-4-4----4-6-6----1-1-1---3-------3-4-4----4-6-6----1-1-1--/7-/7--|

[All my life...] (no bass)

[Chorus]

  (All my life...)
G|-------------------------------------------------------------------|
D|-------------------------------------------------------------------|
A|-3-3-3-3-3-3-3-3---------------------------------------------------|
E|-----------------4-4-4-4-4-4-4-4-4-6-6-6-6-6-6-6-6-1-1-1-1-1-1-1-1-|

  (All these lights...)
G|--------------------------------------------------|
D|--------------------------------------------------|
A|-3-3-3-3-3-3-3-3----------------------------------|
E|-----------------3-3-3-3-3-3-3-3-6-6-6-6-6-6-6-6--|

(...DOWN)
G|--------------------------------------------------------------------------|
D|--------------------------------------------------------------------------|
A|-3-3-------------------------------3-3------------------------------------|
E|--------3-4-4----4-6-6----1-1-1---3-------3-4-4----4-6-6----1-1-1--/7-/7--|

(...DOWN)
G|--------------------------------------------------------------------------|
D|--------------------------------------------------------------------------|
A|-3-3-------------------------------3-3------------------------------------|
E|--------3-4-4----4-6-6----1-1-1---3-------3-4-4----4-6-6----1-1-1--/7-/7--|


************************************

| /  Slide up

************************************

            
            
Suggest correction
Creating personal tab
Creating personal tab
You can edit any tab online and save it as your Personal.

You can edit, replace or remove any tab part or add personal notes – all changes will be seen only by you.

Personal tabs can be accessed anytime from any device, even offline.
Learn more »
comments
print report bad tab
3 comments total.
+1 reply
therealliapea 10 Aug 22, 2015 10:07 PM

i think that instead of 355 on the low e string, it should be 3-4-4 then 4-6-6 then 111 3 etc. it didn't sound right when i played along with the song, otherwise its really good

0 reply
bandsakalife 149 Oct 05, 2015 09:08 AM

I just corrected it, thank you!

0 reply
carpes88 10 Jun 27, 2016 08:13 AM

Hi, there, this is great! Ty for sharing your work. I could be wrong, but I think the chorus is
33333333
44444444....
In other words, instead of G, I think it should be G#.

guest
You may want to rate the tab now too:
select rating
Wanna post a correction for this tab? Suggest correction